  0
SECTION
  2
HEADER
  9
$ACADVER
  1
AC1015
  9
$ACADMAINTVER
 70
     6
  9
$DWGCODEPAGE
  3
ANSI_1254
  9
$INSBASE
 10
0.0
 20
0.0
 30
0.0
  9
$EXTMIN
 10
0.0
 20
0.0
 30
0.0
  9
$EXTMAX
 10
279.4
 20
215.9
 30
0.0
  9
$LIMMIN
 10
0.0
 20
0.0
  9
$LIMMAX
 10
279.4
 20
215.9
  9
$ORTHOMODE
 70
     0
  9
$REGENMODE
 70
     1
  9
$FILLMODE
 70
     1
  9
$QTEXTMODE
 70
     0
  9
$MIRRTEXT
 70
     1
  9
$LTSCALE
 40
1.0
  9
$ATTMODE
 70
     1
  9
$TEXTSIZE
 40
3.5
  9
$TRACEWID
 40
1.0
  9
$TEXTSTYLE
  7
Standard
  9
$CLAYER
  8
0
  9
$CELTYPE
  6
ByLayer
  9
$CECOLOR
 62
   256
  9
$CELTSCALE
 40
1.0
  9
$DISPSILH
 70
     0
  9
$DIMSCALE
 40
1.0
  9
$DIMASZ
 40
3.5
  9
$DIMEXO
 40
1.0
  9
$DIMDLI
 40
3.75
  9
$DIMRND
 40
0.0
  9
$DIMDLE
 40
0.0
  9
$DIMEXE
 40
1.0
  9
$DIMTP
 40
0.0
  9
$DIMTM
 40
0.0
  9
$DIMTXT
 40
3.5
  9
$DIMCEN
 40
2.5
  9
$DIMTSZ
 40
0.0
  9
$DIMTOL
 70
     0
  9
$DIMLIM
 70
     0
  9
$DIMTIH
 70
     1
  9
$DIMTOH
 70
     1
  9
$DIMSE1
 70
     0
  9
$DIMSE2
 70
     0
  9
$DIMTAD
 70
     1
  9
$DIMZIN
 70
     0
  9
$DIMBLK
  1

  9
$DIMASO
 70
     1
  9
$DIMSHO
 70
     1
  9
$DIMPOST
  1

  9
$DIMAPOST
  1

  9
$DIMALT
 70
     0
  9
$DIMALTD
 70
     3
  9
$DIMALTF
 40
0.0393700787
  9
$DIMLFAC
 40
1.0
  9
$DIMTOFL
 70
     1
  9
$DIMTVP
 40
0.0
  9
$DIMTIX
 70
     0
  9
$DIMSOXD
 70
     0
  9
$DIMSAH
 70
     0
  9
$DIMBLK1
  1

  9
$DIMBLK2
  1

  9
$DIMSTYLE
  2
ISO-25
  9
$DIMCLRD
 70
     0
  9
$DIMCLRE
 70
     0
  9
$DIMCLRT
 70
     0
  9
$DIMTFAC
 40
1.0
  9
$DIMGAP
 40
1.524
  9
$DIMJUST
 70
     0
  9
$DIMSD1
 70
     0
  9
$DIMSD2
 70
     0
  9
$DIMTOLJ
 70
     0
  9
$DIMTZIN
 70
     0
  9
$DIMALTZ
 70
     0
  9
$DIMALTTZ
 70
     0
  9
$DIMUPT
 70
     0
  9
$DIMDEC
 70
     2
  9
$DIMTDEC
 70
     2
  9
$DIMALTU
 70
     2
  9
$DIMALTTD
 70
     3
  9
$DIMTXSTY
  7
Standard
  9
$DIMAUNIT
 70
     0
  9
$DIMADEC
 70
     2
  9
$DIMALTRND
 40
0.0
  9
$DIMAZIN
 70
     0
  9
$DIMDSEP
 70
    44
  9
$DIMATFIT
 70
     3
  9
$DIMFRAC
 70
     0
  9
$DIMLDRBLK
  1

  9
$DIMLUNIT
 70
     2
  9
$DIMLWD
 70
    -2
  9
$DIMLWE
 70
    -2
  9
$DIMTMOVE
 70
     0
  9
$LUNITS
 70
     2
  9
$LUPREC
 70
     2
  9
$SKETCHINC
 40
1.0
  9
$FILLETRAD
 40
10.0
  9
$AUNITS
 70
     0
  9
$AUPREC
 70
     2
  9
$MENU
  1
.
  9
$ELEVATION
 40
0.0
  9
$PELEVATION
 40
0.0
  9
$THICKNESS
 40
0.0
  9
$LIMCHECK
 70
     0
  9
$CHAMFERA
 40
0.0
  9
$CHAMFERB
 40
0.0
  9
$CHAMFERC
 40
0.0
  9
$CHAMFERD
 40
0.0
  9
$SKPOLY
 70
     0
  9
$TDCREATE
 40
2459935.709751146
  9
$TDUCREATE
 40
2459935.584751146
  9
$TDUPDATE
 40
2459935.70975132
  9
$TDUUPDATE
 40
2459935.58475132
  9
$TDINDWG
 40
0.0000000116
  9
$TDUSRTIMER
 40
0.0000000116
  9
$USRTIMER
 70
     1
  9
$ANGBASE
 50
0.0
  9
$ANGDIR
 70
     0
  9
$PDMODE
 70
     0
  9
$PDSIZE
 40
-1.0
  9
$PLINEWID
 40
0.0
  9
$SPLFRAME
 70
     0
  9
$SPLINETYPE
 70
     6
  9
$SPLINESEGS
 70
     8
  9
$HANDSEED
  5
F5
  9
$SURFTAB1
 70
     6
  9
$SURFTAB2
 70
     6
  9
$SURFTYPE
 70
     6
  9
$SURFU
 70
     6
  9
$SURFV
 70
     6
  9
$UCSBASE
  2

  9
$UCSNAME
  2

  9
$UCSORG
 10
0.0
 20
0.0
 30
0.0
  9
$UCSXDIR
 10
1.0
 20
0.0
 30
0.0
  9
$UCSYDIR
 10
0.0
 20
1.0
 30
0.0
  9
$UCSORTHOREF
  2

  9
$UCSORTHOVIEW
 70
     0
  9
$UCSORGTOP
 10
0.0
 20
0.0
 30
0.0
  9
$UCSORGBOTTOM
 10
0.0
 20
0.0
 30
0.0
  9
$UCSORGLEFT
 10
0.0
 20
0.0
 30
0.0
  9
$UCSORGRIGHT
 10
0.0
 20
0.0
 30
0.0
  9
$UCSORGFRONT
 10
0.0
 20
0.0
 30
0.0
  9
$UCSORGBACK
 10
0.0
 20
0.0
 30
0.0
  9
$PUCSBASE
  2

  9
$PUCSNAME
  2

  9
$PUCSORG
 10
0.0
 20
0.0
 30
0.0
  9
$PUCSXDIR
 10
1.0
 20
0.0
 30
0.0
  9
$PUCSYDIR
 10
0.0
 20
1.0
 30
0.0
  9
$PUCSORTHOREF
  2

  9
$PUCSORTHOVIEW
 70
     0
  9
$PUCSORGTOP
 10
0.0
 20
0.0
 30
0.0
  9
$PUCSORGBOTTOM
 10
0.0
 20
0.0
 30
0.0
  9
$PUCSORGLEFT
 10
0.0
 20
0.0
 30
0.0
  9
$PUCSORGRIGHT
 10
0.0
 20
0.0
 30
0.0
  9
$PUCSORGFRONT
 10
0.0
 20
0.0
 30
0.0
  9
$PUCSORGBACK
 10
0.0
 20
0.0
 30
0.0
  9
$USERI1
 70
     0
  9
$USERI2
 70
     0
  9
$USERI3
 70
     0
  9
$USERI4
 70
     0
  9
$USERI5
 70
     0
  9
$USERR1
 40
0.0
  9
$USERR2
 40
0.0
  9
$USERR3
 40
0.0
  9
$USERR4
 40
0.0
  9
$USERR5
 40
0.0
  9
$WORLDVIEW
 70
     1
  9
$SHADEDGE
 70
     3
  9
$SHADEDIF
 70
    70
  9
$TILEMODE
 70
     1
  9
$MAXACTVP
 70
    64
  9
$PINSBASE
 10
0.0
 20
0.0
 30
0.0
  9
$PLIMCHECK
 70
     0
  9
$PEXTMIN
 10
1.0000000000E+20
 20
1.0000000000E+20
 30
1.0000000000E+20
  9
$PEXTMAX
 10
-1.0000000000E+20
 20
-1.0000000000E+20
 30
-1.0000000000E+20
  9
$PLIMMIN
 10
0.0
 20
0.0
  9
$PLIMMAX
 10
420.0
 20
297.0
  9
$UNITMODE
 70
     0
  9
$VISRETAIN
 70
     1
  9
$PLINEGEN
 70
     0
  9
$PSLTSCALE
 70
     1
  9
$TREEDEPTH
 70
  3020
  9
$CMLSTYLE
  2
Standard
  9
$CMLJUST
 70
     0
  9
$CMLSCALE
 40
20.0
  9
$PROXYGRAPHICS
 70
     1
  9
$MEASUREMENT
 70
     1
  9
$CELWEIGHT
370
    -1
  9
$ENDCAPS
280
     0
  9
$JOINSTYLE
280
     0
  9
$LWDISPLAY
290
     1
  9
$INSUNITS
 70
     4
  9
$HYPERLINKBASE
  1

  9
$STYLESHEET
  1

  9
$XEDIT
290
     1
  9
$CEPSNTYPE
380
     0
  9
$PSTYLEMODE
290
     1
  9
$FINGERPRINTGUID
  2
{133ece53-252a-47c8-ad39-0717eb5d51d2}
  9
$VERSIONGUID
  2
{FAEB1C32-E019-11D5-929B-00C0DF256EC4}
  9
$EXTNAMES
290
     1
  9
$PSVPSCALE
 40
0.0
  9
$OLESTARTUP
290
     0
  0
ENDSEC
  0
SECTION
  2
CLASSES
  0
CLASS
  1
ACDBDICTIONARYWDFLT
  2
AcDbDictionaryWithDefault
  3
ObjectDBX Classes
 90
        0
280
     0
281
     0
  0
CLASS
  1
VISUALSTYLE
  2
AcDbVisualStyle
  3
ObjectDBX Classes
 90
     4095
280
     0
281
     0
  0
CLASS
  1
MATERIAL
  2
AcDbMaterial
  3
ObjectDBX Classes
 90
     1153
280
     0
281
     0
  0
CLASS
  1
SCALE
  2
AcDbScale
  3
ObjectDBX Classes
 90
     1153
280
     0
281
     0
  0
CLASS
  1
TABLESTYLE
  2
AcDbTableStyle
  3
ObjectDBX Classes
 90
     4095
280
     0
281
     0
  0
CLASS
  1
MLEADERSTYLE
  2
AcDbMLeaderStyle
  3
ACDB_MLEADERSTYLE_CLASS
 90
     4095
280
     0
281
     0
  0
CLASS
  1
SUN
  2
AcDbSun
  3
SCENEOE
 90
     1153
280
     0
281
     0
  0
CLASS
  1
ACDBPLACEHOLDER
  2
AcDbPlaceHolder
  3
ObjectDBX Classes
 90
        0
280
     0
281
     0
  0
CLASS
  1
LAYOUT
  2
AcDbLayout
  3
ObjectDBX Classes
 90
        0
280
     0
281
     0
  0
ENDSEC
  0
SECTION
  2
TABLES
  0
TABLE
  2
VPORT
  5
8
330
0
100
AcDbSymbolTable
 70
     1
  0
VPORT
  5
29
330
8
100
AcDbSymbolTableRecord
100
AcDbViewportTableRecord
  2
*Active
 70
     0
 10
0.0
 20
0.0
 11
1.0
 21
1.0
 12
139.7
 22
107.95
 13
0.0
 23
0.0
 14
10.0
 24
10.0
 15
10.0
 25
10.0
 16
0.0
 26
0.0
 36
1.0
 17
0.0
 27
0.0
 37
0.0
 40
215.9
 41
1.2941176471
 42
50.0
 43
0.0
 44
0.0
 50
0.0
 51
0.0
 71
     0
 72
  2000
 73
     1
 74
     3
 75
     0
 76
     0
 77
     0
 78
     0
281
     0
 65
     1
110
0.0
120
0.0
130
0.0
111
1.0
121
0.0
131
0.0
112
0.0
122
1.0
132
0.0
 79
     0
146
0.0
  0
ENDTAB
  0
TABLE
  2
LTYPE
  5
5
330
0
100
AcDbSymbolTable
 70
     6
  0
LTYPE
  5
14
330
5
100
AcDbSymbolTableRecord
100
AcDbLinetypeTableRecord
  2
ByBlock
 70
     0
  3

 72
    65
 73
     0
 40
0.0
  0
LTYPE
  5
15
330
5
100
AcDbSymbolTableRecord
100
AcDbLinetypeTableRecord
  2
ByLayer
 70
     0
  3

 72
    65
 73
     0
 40
0.0
  0
LTYPE
  5
16
330
5
100
AcDbSymbolTableRecord
100
AcDbLinetypeTableRecord
  2
Continuous
 70
     0
  3
Solid line
 72
    65
 73
     0
 40
0.0
  0
LTYPE
  5
6E
330
5
100
AcDbSymbolTableRecord
100
AcDbLinetypeTableRecord
  2
HIDDEN
 70
     0
  3
Hidden __ __ __ __ __ __ __ __ __ __ __ __ __ __
 72
    65
 73
     2
 40
1.905
 49
1.27
 74
     0
 49
-0.635
 74
     0
  0
LTYPE
  5
6F
330
5
100
AcDbSymbolTableRecord
100
AcDbLinetypeTableRecord
  2
PHANTOM
 70
     0
  3
Phantom ______  __  __  ______  __  __  ______
 72
    65
 73
     6
 40
12.7
 49
6.35
 74
     0
 49
-1.27
 74
     0
 49
1.27
 74
     0
 49
-1.27
 74
     0
 49
1.27
 74
     0
 49
-1.27
 74
     0
  0
LTYPE
  5
70
330
5
100
AcDbSymbolTableRecord
100
AcDbLinetypeTableRecord
  2
CENTER
 70
     0
  3
Center ____ _ ____ _ ____ _ ____ _ ____ _ ____
 72
    65
 73
     4
 40
10.16
 49
6.35
 74
     0
 49
-1.27
 74
     0
 49
1.27
 74
     0
 49
-1.27
 74
     0
  0
LTYPE
  5
71
330
5
100
AcDbSymbolTableRecord
100
AcDbLinetypeTableRecord
  2
CENTERX2
 70
     0
  3
Center (2x) ________  __  ________  __  _____
 72
    65
 73
     4
 40
20.32
 49
12.7
 74
     0
 49
-2.54
 74
     0
 49
2.54
 74
     0
 49
-2.54
 74
     0
  0
LTYPE
  5
72
330
5
100
AcDbSymbolTableRecord
100
AcDbLinetypeTableRecord
  2
DOT2
 70
     0
  3
Dot (.5x) ........................................
 72
    65
 73
     2
 40
0.635
 49
0.0
 74
     0
 49
-0.635
 74
     0
  0
ENDTAB
  0
TABLE
  2
LAYER
  5
2
330
0
100
AcDbSymbolTable
 70
    17
  0
LAYER
  5
10
330
2
100
AcDbSymbolTableRecord
100
AcDbLayerTableRecord
  2
0
 70
     0
 62
     7
  6
Continuous
370
    -3
390
F
  0
LAYER
  5
73
330
2
100
AcDbSymbolTableRecord
100
AcDbLayerTableRecord
  2
FORMAT
 70
     0
 62
     7
  6
Continuous
370
    -3
390
F
  0
LAYER
  5
74
330
2
100
AcDbSymbolTableRecord
100
AcDbLayerTableRecord
  2
YARDIMCI_GEOMETRI
 70
     0
 62
    -6
  6
Continuous
290
     0
370
    -3
390
F
  0
LAYER
  5
75
330
2
100
AcDbSymbolTableRecord
100
AcDbLayerTableRecord
  2
SAYFA_CERCEVESI
 70
     0
 62
     7
  6
Continuous
370
    25
390
F
  0
LAYER
  5
76
330
2
100
AcDbSymbolTableRecord
100
AcDbLayerTableRecord
  2
ANTET
 70
     0
 62
     7
  6
Continuous
370
    -3
390
F
  0
LAYER
  5
77
330
2
100
AcDbSymbolTableRecord
100
AcDbLayerTableRecord
  2
OLCU
 70
     0
 62
   150
  6
Continuous
370
    -3
390
F
  0
LAYER
  5
78
330
2
100
AcDbSymbolTableRecord
100
AcDbLayerTableRecord
  2
METIN
 70
     0
 62
    96
  6
Continuous
370
    -3
390
F
  0
LAYER
  5
79
330
2
100
AcDbSymbolTableRecord
100
AcDbLayerTableRecord
  2
BALON
 70
     0
 62
     5
  6
Continuous
370
    -3
390
F
  0
LAYER
  5
7A
330
2
100
AcDbSymbolTableRecord
100
AcDbLayerTableRecord
  2
VURGU
 70
     0
 62
     7
  6
Continuous
370
    -3
390
F
  0
LAYER
  5
7B
330
2
100
AcDbSymbolTableRecord
100
AcDbLayerTableRecord
  2
SILIK
 70
     0
 62
     7
  6
Continuous
370
    -3
390
F
  0
LAYER
  5
7C
330
2
100
AcDbSymbolTableRecord
100
AcDbLayerTableRecord
  2
MODEL
 70
     0
 62
     7
  6
Continuous
370
    -3
390
F
  0
LAYER
  5
7D
330
2
100
AcDbSymbolTableRecord
100
AcDbLayerTableRecord
  2
DETAYLANDıRMA
 70
     0
 62
   190
  6
Continuous
370
    -3
390
F
  0
LAYER
  5
7E
330
2
100
AcDbSymbolTableRecord
100
AcDbLayerTableRecord
  2
TOLERANS
 70
     0
 62
   230
  6
Continuous
370
    -3
390
F
  0
LAYER
  5
7F
330
2
100
AcDbSymbolTableRecord
100
AcDbLayerTableRecord
  2
MERKEZ_CIZGILERI
 70
     0
 62
    30
  6
Continuous
370
    -3
390
F
  0
LAYER
  5
80
330
2
100
AcDbSymbolTableRecord
100
AcDbLayerTableRecord
  2
KESIT-DETAY_CIZGILERI
 70
     0
 62
     7
  6
Continuous
370
    -3
390
F
  0
LAYER
  5
81
330
2
100
AcDbSymbolTableRecord
100
AcDbLayerTableRecord
  2
\U+041E\U+0421\U+0415\U+0412\U+042B\U+0415
 70
     0
 62
     7
  6
Continuous
370
    -3
390
F
  0
LAYER
  5
82
330
2
100
AcDbSymbolTableRecord
100
AcDbLayerTableRecord
  2
\U+0412\U+041E\U+0414\U+042F\U+041D\U+042B\U+0415_\U+0417\U+041D\U+0410\U+041A\U+0418
 70
     0
 62
    11
  6
Continuous
370
    -3
390
F
  0
ENDTAB
  0
TABLE
  2
STYLE
  5
3
330
0
100
AcDbSymbolTable
 70
     1
  0
STYLE
  5
11
330
3
100
AcDbSymbolTableRecord
100
AcDbTextStyleTableRecord
  2
Standard
 70
     0
 40
0.0
 41
1.0
 50
0.0
 71
     0
 42
3.5
  3
txt
  4

  0
ENDTAB
  0
TABLE
  2
VIEW
  5
6
330
0
100
AcDbSymbolTable
 70
     0
  0
ENDTAB
  0
TABLE
  2
UCS
  5
7
330
0
100
AcDbSymbolTable
 70
     0
  0
ENDTAB
  0
TABLE
  2
APPID
  5
9
330
0
100
AcDbSymbolTable
 70
     1
  0
APPID
  5
12
330
9
100
AcDbSymbolTableRecord
100
AcDbRegAppTableRecord
  2
ACAD
 70
     0
  0
ENDTAB
  0
TABLE
  2
DIMSTYLE
  5
A
330
0
100
AcDbSymbolTable
 70
     1
100
AcDbDimStyleTable
  0
DIMSTYLE
105
27
330
A
100
AcDbSymbolTableRecord
100
AcDbDimStyleTableRecord
  2
ISO-25
 70
     0
 41
2.5
 42
0.625
 43
3.75
 44
1.25
 73
     0
 74
     0
 77
     1
 78
     8
140
2.5
141
2.5
143
0.0393700787
147
0.625
171
     3
172
     1
178
     0
271
     2
272
     2
274
     3
278
    44
283
     0
284
     8
340
11
  0
ENDTAB
  0
TABLE
  2
BLOCK_RECORD
  5
1
330
0
100
AcDbSymbolTable
 70
     2
  0
BLOCK_RECORD
  5
1F
330
1
100
AcDbSymbolTableRecord
100
AcDbBlockTableRecord
  2
*Model_Space
340
22
  0
BLOCK_RECORD
  5
1B
330
1
100
AcDbSymbolTableRecord
100
AcDbBlockTableRecord
  2
*Paper_Space
340
1E
  0
BLOCK_RECORD
  5
23
330
1
100
AcDbSymbolTableRecord
100
AcDbBlockTableRecord
  2
*Paper_Space0
340
26
  0
BLOCK_RECORD
  5
88
330
1
100
AcDbSymbolTableRecord
100
AcDbBlockTableRecord
  2
SW_CENTERMARKSYMBOL_0
340
0
102
{BLKREFS
331
93
102
}
  0
ENDTAB
  0
ENDSEC
  0
SECTION
  2
BLOCKS
  0
BLOCK
  5
20
330
1F
100
AcDbEntity
  8
0
100
AcDbBlockBegin
  2
*Model_Space
 70
     0
 10
0.0
 20
0.0
 30
0.0
  3
*Model_Space
  1

  0
ENDBLK
  5
21
330
1F
100
AcDbEntity
  8
0
100
AcDbBlockEnd
  0
BLOCK
  5
1C
330
1B
100
AcDbEntity
 67
     1
  8
0
100
AcDbBlockBegin
  2
*Paper_Space
 70
     0
 10
0.0
 20
0.0
 30
0.0
  3
*Paper_Space
  1

  0
ENDBLK
  5
1D
330
1B
100
AcDbEntity
 67
     1
  8
0
100
AcDbBlockEnd
  0
BLOCK
  5
24
330
23
100
AcDbEntity
  8
0
100
AcDbBlockBegin
  2
*Paper_Space0
 70
     0
 10
0.0
 20
0.0
 30
0.0
  3
*Paper_Space0
  1

  0
ENDBLK
  5
25
330
23
100
AcDbEntity
  8
0
100
AcDbBlockEnd
  0
BLOCK
  5
89
330
88
100
AcDbEntity
  8
0
100
AcDbBlockBegin
  2
SW_CENTERMARKSYMBOL_0
 70
     0
 10
0.0
 20
0.0
 30
0.0
  3
SW_CENTERMARKSYMBOL_0
  1

  0
LINE
  5
8B
330
88
100
AcDbEntity
  8
FORMAT
 62
     0
100
AcDbLine
 10
0.0
 20
0.0
 30
0.0
 11
0.0
 21
2.5
 31
0.0
  0
LINE
  5
8C
330
88
100
AcDbEntity
  8
FORMAT
 62
     0
100
AcDbLine
 10
0.0
 20
0.0
 30
0.0
 11
-2.5
 21
0.0
 31
0.0
  0
LINE
  5
8D
330
88
100
AcDbEntity
  8
FORMAT
 62
     0
100
AcDbLine
 10
0.0
 20
0.0
 30
0.0
 11
0.0
 21
-2.5
 31
0.0
  0
LINE
  5
8E
330
88
100
AcDbEntity
  8
FORMAT
 62
     0
100
AcDbLine
 10
0.0
 20
0.0
 30
0.0
 11
2.5
 21
0.0
 31
0.0
  0
LINE
  5
8F
330
88
100
AcDbEntity
  8
FORMAT
 62
     0
100
AcDbLine
 10
0.0
 20
5.0
 30
0.0
 11
0.0
 21
180.0
 31
0.0
  0
LINE
  5
90
330
88
100
AcDbEntity
  8
FORMAT
 62
     0
100
AcDbLine
 10
-5.0
 20
0.0
 30
0.0
 11
-180.0
 21
0.0
 31
0.0
  0
LINE
  5
91
330
88
100
AcDbEntity
  8
FORMAT
 62
     0
100
AcDbLine
 10
0.0
 20
-5.0
 30
0.0
 11
0.0
 21
-180.0
 31
0.0
  0
LINE
  5
92
330
88
100
AcDbEntity
  8
FORMAT
 62
     0
100
AcDbLine
 10
5.0
 20
0.0
 30
0.0
 11
180.0
 21
0.0
 31
0.0
  0
ENDBLK
  5
8A
330
88
100
AcDbEntity
  8
0
100
AcDbBlockEnd
  0
ENDSEC
  0
SECTION
  2
ENTITIES
  0
CIRCLE
  5
83
330
1F
100
AcDbEntity
  8
0
  6
Continuous
 62
     7
370
    25
100
AcDbCircle
 10
137.9424909615
 20
108.5958316346
 30
0.0
 40
136.5
  0
CIRCLE
  5
84
330
1F
100
AcDbEntity
  8
0
  6
Continuous
 62
     7
370
    25
100
AcDbCircle
 10
137.9424909615
 20
108.5958316346
 30
0.0
 40
123.8
  0
CIRCLE
  5
85
330
1F
100
AcDbEntity
  8
0
  6
Continuous
 62
     7
370
    25
100
AcDbCircle
 10
137.9424909615
 20
108.5958316346
 30
0.0
 40
137.0000000000001
  0
CIRCLE
  5
86
330
1F
100
AcDbEntity
  8
0
  6
Continuous
 62
     7
370
    25
100
AcDbCircle
 10
137.9424909615
 20
108.5958316346
 30
0.0
 40
177.5
  0
CIRCLE
  5
87
330
1F
100
AcDbEntity
  8
0
  6
Continuous
 62
     7
370
    25
100
AcDbCircle
 10
137.9424909615
 20
108.5958316346
 30
0.0
 40
114.6000000000001
  0
INSERT
  5
93
330
1F
100
AcDbEntity
  8
FORMAT
 62
     7
100
AcDbBlockReference
  2
SW_CENTERMARKSYMBOL_0
 10
137.9424909615
 20
108.5958316346
 30
0.0
  0
LINE
  5
94
330
1F
100
AcDbEntity
  8
0
  6
Continuous
 62
     7
370
    25
100
AcDbLine
 10
-831.4377333079
 20
286.0958316346
 30
0.0
 11
-883.4377333079
 21
248.5958316346
 31
0.0
  0
LINE
  5
95
330
1F
100
AcDbEntity
  8
0
  6
Continuous
 62
     7
370
    25
100
AcDbLine
 10
-883.4377333079
 20
-31.4041683654
 30
0.0
 11
-831.4377333079
 21
-68.9041683654
 31
0.0
  0
LINE
  5
96
330
1F
100
AcDbEntity
  8
0
  6
Continuous
 62
     7
370
    25
100
AcDbLine
 10
-674.4377333079
 20
286.0958316346
 30
0.0
 11
-831.4377333079
 21
286.0958316346
 31
0.0
  0
LINE
  5
97
330
1F
100
AcDbEntity
  8
0
  6
Continuous
 62
     7
370
    25
100
AcDbLine
 10
-831.4377333079
 20
-68.9041683654
 30
0.0
 11
-674.4377333079
 21
-68.9041683654
 31
0.0
  0
LINE
  5
98
330
1F
100
AcDbEntity
  8
0
  6
Continuous
 62
     7
370
    25
100
AcDbLine
 10
-883.4377333079
 20
248.5958316346
 30
0.0
 11
-1029.4377333079
 21
248.5958316346
 31
0.0
  0
LINE
  5
99
330
1F
100
AcDbEntity
  8
0
  6
Continuous
 62
     7
370
    25
100
AcDbLine
 10
-1029.4377333079
 20
-31.4041683654
 30
0.0
 11
-883.4377333079
 21
-31.4041683654
 31
0.0
  0
LINE
  5
9A
330
1F
100
AcDbEntity
  8
0
  6
Continuous
 62
     7
370
    25
100
AcDbLine
 10
-673.4377333079
 20
245.5958316346
 30
0.0
 11
-674.4377333079
 21
245.5958316346
 31
0.0
  0
LINE
  5
9B
330
1F
100
AcDbEntity
  8
0
  6
Continuous
 62
     7
370
    25
100
AcDbLine
 10
-674.4377333079
 20
-28.4041683654
 30
0.0
 11
-673.4377333079
 21
-28.4041683654
 31
0.0
  0
LINE
  5
9C
330
1F
100
AcDbEntity
  8
0
  6
Continuous
 62
     7
370
    25
100
AcDbLine
 10
-284.4377333079
 20
245.0958316346
 30
0.0
 11
-673.4377333079
 21
245.0958316346
 31
0.0
  0
LINE
  5
9D
330
1F
100
AcDbEntity
  8
0
  6
Continuous
 62
     7
370
    25
100
AcDbLine
 10
-673.4377333079
 20
-27.9041683654
 30
0.0
 11
-284.4377333079
 21
-27.9041683654
 31
0.0
  0
LINE
  5
9E
330
1F
100
AcDbEntity
  8
0
  6
Continuous
 62
     7
370
    25
100
AcDbLine
 10
-883.4377333079
 20
248.5958316346
 30
0.0
 11
-883.4377333079
 21
-31.4041683654
 31
0.0
  0
LINE
  5
9F
330
1F
100
AcDbEntity
  8
0
  6
Continuous
 62
     7
370
    25
100
AcDbLine
 10
-831.4377333079
 20
286.0958316346
 30
0.0
 11
-831.4377333079
 21
-68.9041683654
 31
0.0
  0
LINE
  5
A0
330
1F
100
AcDbEntity
  8
0
  6
Continuous
 62
     7
370
    25
100
AcDbLine
 10
-674.4377333079
 20
286.0958316346
 30
0.0
 11
-674.4377333079
 21
-68.9041683654
 31
0.0
  0
LINE
  5
A1
330
1F
100
AcDbEntity
  8
0
  6
Continuous
 62
     7
370
    25
100
AcDbLine
 10
-1029.4377333079
 20
248.5958316346
 30
0.0
 11
-1029.4377333079
 21
-31.4041683654
 31
0.0
  0
LINE
  5
A2
330
1F
100
AcDbEntity
  8
0
  6
Continuous
 62
     7
370
    25
100
AcDbLine
 10
-673.4377333079
 20
245.5958316346
 30
0.0
 11
-673.4377333079
 21
-28.4041683654
 31
0.0
  0
LINE
  5
A3
330
1F
100
AcDbEntity
  8
0
  6
Continuous
 62
     7
370
    25
100
AcDbLine
 10
-284.4377333079
 20
245.0958316346
 30
0.0
 11
-284.4377333079
 21
-27.9041683654
 31
0.0
  0
LINE
  5
A4
330
1F
100
AcDbEntity
  8
0
  6
Continuous
 62
     7
370
    25
100
AcDbLine
 10
1137.594597903
 20
-68.9041683654
 30
0.0
 11
1189.594597903
 21
-31.4041683654
 31
0.0
  0
LINE
  5
A5
330
1F
100
AcDbEntity
  8
0
  6
Continuous
 62
     7
370
    25
100
AcDbLine
 10
1189.594597903
 20
248.5958316346
 30
0.0
 11
1137.594597903
 21
286.0958316346
 31
0.0
  0
LINE
  5
A6
330
1F
100
AcDbEntity
  8
0
  6
Continuous
 62
     7
370
    25
100
AcDbLine
 10
980.594597903
 20
-68.9041683654
 30
0.0
 11
1137.594597903
 21
-68.9041683654
 31
0.0
  0
LINE
  5
A7
330
1F
100
AcDbEntity
  8
0
  6
Continuous
 62
     7
370
    25
100
AcDbLine
 10
1137.594597903
 20
286.0958316346
 30
0.0
 11
980.594597903
 21
286.0958316346
 31
0.0
  0
LINE
  5
A8
330
1F
100
AcDbEntity
  8
0
  6
Continuous
 62
     7
370
    25
100
AcDbLine
 10
1189.594597903
 20
-31.4041683654
 30
0.0
 11
1335.594597903
 21
-31.4041683654
 31
0.0
  0
LINE
  5
A9
330
1F
100
AcDbEntity
  8
0
  6
Continuous
 62
     7
370
    25
100
AcDbLine
 10
1335.594597903
 20
248.5958316346
 30
0.0
 11
1189.594597903
 21
248.5958316346
 31
0.0
  0
LINE
  5
AA
330
1F
100
AcDbEntity
  8
0
  6
Continuous
 62
     7
370
    25
100
AcDbLine
 10
979.594597903
 20
-28.4041683654
 30
0.0
 11
980.594597903
 21
-28.4041683654
 31
0.0
  0
LINE
  5
AB
330
1F
100
AcDbEntity
  8
0
  6
Continuous
 62
     7
370
    25
100
AcDbLine
 10
980.594597903
 20
245.5958316346
 30
0.0
 11
979.594597903
 21
245.5958316346
 31
0.0
  0
LINE
  5
AC
330
1F
100
AcDbEntity
  8
0
  6
Continuous
 62
     7
370
    25
100
AcDbLine
 10
590.594597903
 20
-27.9041683654
 30
0.0
 11
979.594597903
 21
-27.9041683654
 31
0.0
  0
LINE
  5
AD
330
1F
100
AcDbEntity
  8
0
  6
Continuous
 62
     7
370
    25
100
AcDbLine
 10
979.594597903
 20
245.0958316346
 30
0.0
 11
590.594597903
 21
245.0958316346
 31
0.0
  0
LINE
  5
AE
330
1F
100
AcDbEntity
  8
0
  6
Continuous
 62
     7
370
    25
100
AcDbLine
 10
1189.594597903
 20
108.5958316346
 30
0.0
 11
1189.594597903
 21
248.5958316346
 31
0.0
  0
LINE
  5
AF
330
1F
100
AcDbEntity
  8
0
  6
Continuous
 62
     7
370
    25
100
AcDbLine
 10
1189.594597903
 20
-31.4041683654
 30
0.0
 11
1189.594597903
 21
108.5958316346
 31
0.0
  0
LINE
  5
B0
330
1F
100
AcDbEntity
  8
0
  6
Continuous
 62
     7
370
    25
100
AcDbLine
 10
1137.594597903
 20
108.5958316346
 30
0.0
 11
1137.594597903
 21
286.0958316346
 31
0.0
  0
LINE
  5
B1
330
1F
100
AcDbEntity
  8
0
  6
Continuous
 62
     7
370
    25
100
AcDbLine
 10
1137.594597903
 20
-68.9041683654
 30
0.0
 11
1137.594597903
 21
108.5958316346
 31
0.0
  0
LINE
  5
B2
330
1F
100
AcDbEntity
  8
0
  6
Continuous
 62
     7
370
    25
100
AcDbLine
 10
980.594597903
 20
108.5958316346
 30
0.0
 11
980.594597903
 21
286.0958316346
 31
0.0
  0
LINE
  5
B3
330
1F
100
AcDbEntity
  8
0
  6
Continuous
 62
     7
370
    25
100
AcDbLine
 10
980.594597903
 20
-68.9041683654
 30
0.0
 11
980.594597903
 21
108.5958316346
 31
0.0
  0
LINE
  5
B4
330
1F
100
AcDbEntity
  8
0
  6
Continuous
 62
     7
370
    25
100
AcDbLine
 10
1335.594597903
 20
108.5958316346
 30
0.0
 11
1335.594597903
 21
248.5958316346
 31
0.0
  0
LINE
  5
B5
330
1F
100
AcDbEntity
  8
0
  6
Continuous
 62
     7
370
    25
100
AcDbLine
 10
1335.594597903
 20
-31.4041683654
 30
0.0
 11
1335.594597903
 21
108.5958316346
 31
0.0
  0
LINE
  5
B6
330
1F
100
AcDbEntity
  8
0
  6
Continuous
 62
     7
370
    25
100
AcDbLine
 10
979.594597903
 20
108.5958316346
 30
0.0
 11
979.594597903
 21
245.5958316346
 31
0.0
  0
LINE
  5
B7
330
1F
100
AcDbEntity
  8
0
  6
Continuous
 62
     7
370
    25
100
AcDbLine
 10
979.594597903
 20
-28.4041683654
 30
0.0
 11
979.594597903
 21
108.5958316346
 31
0.0
  0
LINE
  5
B8
330
1F
100
AcDbEntity
  8
0
  6
Continuous
 62
     7
370
    25
100
AcDbLine
 10
590.594597903
 20
108.5958316346
 30
0.0
 11
590.594597903
 21
245.0958316346
 31
0.0
  0
LINE
  5
B9
330
1F
100
AcDbEntity
  8
0
  6
Continuous
 62
     7
370
    25
100
AcDbLine
 10
590.594597903
 20
-27.9041683654
 30
0.0
 11
590.594597903
 21
108.5958316346
 31
0.0
  0
LINE
  5
BA
330
1F
100
AcDbEntity
  8
0
  6
Continuous
 62
     7
370
    25
100
AcDbLine
 10
-39.5575090385
 20
-880.3507006655
 30
0.0
 11
-2.0575090385
 21
-932.3507006655
 31
0.0
  0
LINE
  5
BB
330
1F
100
AcDbEntity
  8
0
  6
Continuous
 62
     7
370
    25
100
AcDbLine
 10
277.9424909615
 20
-932.3507006655
 30
0.0
 11
315.4424909615
 21
-880.3507006655
 31
0.0
  0
LINE
  5
BC
330
1F
100
AcDbEntity
  8
0
  6
Continuous
 62
     7
370
    25
100
AcDbLine
 10
-39.5575090385
 20
-723.3507006655
 30
0.0
 11
-39.5575090385
 21
-880.3507006655
 31
0.0
  0
LINE
  5
BD
330
1F
100
AcDbEntity
  8
0
  6
Continuous
 62
     7
370
    25
100
AcDbLine
 10
315.4424909615
 20
-880.3507006655
 30
0.0
 11
315.4424909615
 21
-723.3507006655
 31
0.0
  0
LINE
  5
BE
330
1F
100
AcDbEntity
  8
0
  6
Continuous
 62
     7
370
    25
100
AcDbLine
 10
-2.0575090385
 20
-932.3507006655
 30
0.0
 11
-2.0575090385
 21
-1078.3507006655
 31
0.0
  0
LINE
  5
BF
330
1F
100
AcDbEntity
  8
0
  6
Continuous
 62
     7
370
    25
100
AcDbLine
 10
277.9424909615
 20
-1078.3507006655
 30
0.0
 11
277.9424909615
 21
-932.3507006655
 31
0.0
  0
LINE
  5
C0
330
1F
100
AcDbEntity
  8
0
  6
Continuous
 62
     7
370
    25
100
AcDbLine
 10
0.9424909615
 20
-722.3507006655
 30
0.0
 11
0.9424909615
 21
-723.3507006655
 31
0.0
  0
LINE
  5
C1
330
1F
100
AcDbEntity
  8
0
  6
Continuous
 62
     7
370
    25
100
AcDbLine
 10
274.9424909615
 20
-723.3507006655
 30
0.0
 11
274.9424909615
 21
-722.3507006655
 31
0.0
  0
LINE
  5
C2
330
1F
100
AcDbEntity
  8
0
  6
Continuous
 62
     7
370
    25
100
AcDbLine
 10
1.4424909615
 20
-333.3507006655
 30
0.0
 11
1.4424909615
 21
-722.3507006655
 31
0.0
  0
LINE
  5
C3
330
1F
100
AcDbEntity
  8
0
  6
Continuous
 62
     7
370
    25
100
AcDbLine
 10
274.4424909615
 20
-722.3507006655
 30
0.0
 11
274.4424909615
 21
-333.3507006655
 31
0.0
  0
LINE
  5
C4
330
1F
100
AcDbEntity
  8
0
  6
Continuous
 62
     7
370
    25
100
AcDbLine
 10
-2.0575090385
 20
-932.3507006655
 30
0.0
 11
277.9424909615
 21
-932.3507006655
 31
0.0
  0
LINE
  5
C5
330
1F
100
AcDbEntity
  8
0
  6
Continuous
 62
     7
370
    25
100
AcDbLine
 10
-39.5575090385
 20
-880.3507006655
 30
0.0
 11
315.4424909615
 21
-880.3507006655
 31
0.0
  0
LINE
  5
C6
330
1F
100
AcDbEntity
  8
0
  6
Continuous
 62
     7
370
    25
100
AcDbLine
 10
-39.5575090385
 20
-723.3507006655
 30
0.0
 11
315.4424909615
 21
-723.3507006655
 31
0.0
  0
LINE
  5
C7
330
1F
100
AcDbEntity
  8
0
  6
Continuous
 62
     7
370
    25
100
AcDbLine
 10
-2.0575090385
 20
-1078.3507006655
 30
0.0
 11
277.9424909615
 21
-1078.3507006655
 31
0.0
  0
LINE
  5
C8
330
1F
100
AcDbEntity
  8
0
  6
Continuous
 62
     7
370
    25
100
AcDbLine
 10
0.9424909615
 20
-722.3507006655
 30
0.0
 11
274.9424909615
 21
-722.3507006655
 31
0.0
  0
LINE
  5
C9
330
1F
100
AcDbEntity
  8
0
  6
Continuous
 62
     7
370
    25
100
AcDbLine
 10
1.4424909615
 20
-333.3507006655
 30
0.0
 11
274.4424909615
 21
-333.3507006655
 31
0.0
  0
LINE
  5
CA
330
1F
100
AcDbEntity
  8
0
  6
Continuous
 62
     7
370
    25
100
AcDbLine
 10
315.4424909615
 20
1055.5059252528
 30
0.0
 11
277.9424909615
 21
1107.5059252528
 31
0.0
  0
LINE
  5
CB
330
1F
100
AcDbEntity
  8
0
  6
Continuous
 62
     7
370
    25
100
AcDbLine
 10
-2.0575090385
 20
1107.5059252528
 30
0.0
 11
-39.5575090385
 21
1055.5059252528
 31
0.0
  0
LINE
  5
CC
330
1F
100
AcDbEntity
  8
0
  6
Continuous
 62
     7
370
    25
100
AcDbLine
 10
315.4424909615
 20
898.5059252528
 30
0.0
 11
315.4424909615
 21
1055.5059252528
 31
0.0
  0
LINE
  5
CD
330
1F
100
AcDbEntity
  8
0
  6
Continuous
 62
     7
370
    25
100
AcDbLine
 10
-39.5575090385
 20
1055.5059252528
 30
0.0
 11
-39.5575090385
 21
898.5059252528
 31
0.0
  0
LINE
  5
CE
330
1F
100
AcDbEntity
  8
0
  6
Continuous
 62
     7
370
    25
100
AcDbLine
 10
277.9424909615
 20
1107.5059252528
 30
0.0
 11
277.9424909615
 21
1253.5059252528
 31
0.0
  0
LINE
  5
CF
330
1F
100
AcDbEntity
  8
0
  6
Continuous
 62
     7
370
    25
100
AcDbLine
 10
-2.0575090385
 20
1253.5059252528
 30
0.0
 11
-2.0575090385
 21
1107.5059252528
 31
0.0
  0
LINE
  5
D0
330
1F
100
AcDbEntity
  8
0
  6
Continuous
 62
     7
370
    25
100
AcDbLine
 10
274.9424909615
 20
897.5059252528
 30
0.0
 11
274.9424909615
 21
898.5059252528
 31
0.0
  0
LINE
  5
D1
330
1F
100
AcDbEntity
  8
0
  6
Continuous
 62
     7
370
    25
100
AcDbLine
 10
0.9424909615
 20
898.5059252528
 30
0.0
 11
0.9424909615
 21
897.5059252528
 31
0.0
  0
LINE
  5
D2
330
1F
100
AcDbEntity
  8
0
  6
Continuous
 62
     7
370
    25
100
AcDbLine
 10
274.4424909615
 20
508.5059252528
 30
0.0
 11
274.4424909615
 21
897.5059252528
 31
0.0
  0
LINE
  5
D3
330
1F
100
AcDbEntity
  8
0
  6
Continuous
 62
     7
370
    25
100
AcDbLine
 10
1.4424909615
 20
897.5059252528
 30
0.0
 11
1.4424909615
 21
508.5059252528
 31
0.0
  0
LINE
  5
D4
330
1F
100
AcDbEntity
  8
0
  6
Continuous
 62
     7
370
    25
100
AcDbLine
 10
277.9424909615
 20
1107.5059252528
 30
0.0
 11
-2.0575090385
 21
1107.5059252528
 31
0.0
  0
LINE
  5
D5
330
1F
100
AcDbEntity
  8
0
  6
Continuous
 62
     7
370
    25
100
AcDbLine
 10
315.4424909615
 20
1055.5059252528
 30
0.0
 11
-39.5575090385
 21
1055.5059252528
 31
0.0
  0
LINE
  5
D6
330
1F
100
AcDbEntity
  8
0
  6
Continuous
 62
     7
370
    25
100
AcDbLine
 10
315.4424909615
 20
898.5059252528
 30
0.0
 11
-39.5575090385
 21
898.5059252528
 31
0.0
  0
LINE
  5
D7
330
1F
100
AcDbEntity
  8
0
  6
Continuous
 62
     7
370
    25
100
AcDbLine
 10
277.9424909615
 20
1253.5059252528
 30
0.0
 11
-2.0575090385
 21
1253.5059252528
 31
0.0
  0
LINE
  5
D8
330
1F
100
AcDbEntity
  8
0
  6
Continuous
 62
     7
370
    25
100
AcDbLine
 10
274.9424909615
 20
897.5059252528
 30
0.0
 11
0.9424909615
 21
897.5059252528
 31
0.0
  0
LINE
  5
D9
330
1F
100
AcDbEntity
  8
0
  6
Continuous
 62
     7
370
    25
100
AcDbLine
 10
274.4424909615
 20
508.5059252528
 30
0.0
 11
1.4424909615
 21
508.5059252528
 31
0.0
  0
LINE
  5
DA
330
1F
100
AcDbEntity
  8
0
  6
Continuous
 62
     7
370
    25
100
AcDbLine
 10
578.0378838117
 20
-533.0392269705
 30
0.0
 11
853.1024216933
 21
-691.83060472
 31
0.0
  0
LINE
  5
DB
330
1F
100
AcDbEntity
  8
0
  6
Continuous
 62
     7
370
    25
100
AcDbLine
 10
989.5913286981
 20
-455.39926529
 30
0.0
 11
714.5267908166
 21
-296.6078875405
 31
0.0
  0
LINE
  5
DC
330
1F
100
AcDbEntity
  8
0
  6
Continuous
 62
     7
370
    25
100
AcDbLine
 10
833.3111944555
 20
-727.7468121335
 30
0.0
 11
944.3269591018
 21
-791.8348489116
 31
0.0
  0
LINE
  5
DD
330
1F
100
AcDbEntity
  8
0
  6
Continuous
 62
     7
370
    25
100
AcDbLine
 10
1121.8125341447
 20
-484.3875027664
 30
0.0
 11
1010.7967694984
 21
-420.2994659884
 31
0.0
  0
LINE
  5
DE
330
1F
100
AcDbEntity
  8
0
  6
Continuous
 62
     7
370
    25
100
AcDbLine
 10
852.8524420102
 20
-692.2636291512
 30
0.0
 11
853.5595487913
 21
-692.6718332071
 31
0.0
  0
LINE
  5
DF
330
1F
100
AcDbEntity
  8
0
  6
Continuous
 62
     7
370
    25
100
AcDbLine
 10
990.5484151625
 20
-455.3744449148
 30
0.0
 11
989.8413083813
 21
-454.9662408589
 31
0.0
  0
LINE
  5
E0
330
1F
100
AcDbEntity
  8
0
  6
Continuous
 62
     7
370
    25
100
AcDbLine
 10
1001.9980049727
 20
-796.4729815692
 30
0.0
 11
1045.3320100558
 21
-784.2428729561
 31
0.0
  0
LINE
  5
E1
330
1F
100
AcDbEntity
  8
0
  6
Continuous
 62
     7
370
    25
100
AcDbLine
 10
1165.7487798976
 20
-575.6523082846
 30
0.0
 11
1154.6692667365
 21
-532.0099442178
 31
0.0
  0
LINE
  5
E2
330
1F
100
AcDbEntity
  8
0
  6
Continuous
 62
     7
370
    25
100
AcDbLine
 10
1019.0371681584
 20
-791.6640372762
 30
0.0
 11
1103.0825780136
 21
-840.1824196427
 31
0.0
  0
LINE
  5
E3
330
1F
100
AcDbEntity
  8
0
  6
Continuous
 62
     7
370
    25
100
AcDbLine
 10
1243.0712005827
 20
-597.6887381762
 30
0.0
 11
1159.0257907275
 21
-549.1703558096
 31
0.0
  0
LWPOLYLINE
  5
E4
330
1F
100
AcDbEntity
  8
0
  6
Continuous
 62
     7
370
    25
100
AcDbPolyline
 90
       17
 70
   128
 43
0.0
 10
1017.8669508277
 20
-517.8950813731
 10
1017.7430680028
 20
-512.3213514204
 10
1017.3717375334
 20
-506.9049612178
 10
1016.7539126197
 20
-501.659814561
 10
1015.8911792092
 20
-496.5993756665
 10
1014.7857519263
 20
-491.7366346082
 10
1013.4404683869
 20
-487.0840739727
 10
1011.8587819146
 20
-482.6536368165
 10
1010.0447526759
 20
-478.4566960082
 10
1008.0030372578
 20
-474.5040250345
 10
1005.7388767146
 20
-470.8057703453
 10
1003.2580831138
 20
-467.3714253073
 10
1000.567024617
 20
-464.209805835
 10
997.6726091329
 20
-461.3290277601
 10
994.5822665844
 20
-458.7364859987
 10
991.3039298366
 20
-456.4388355682
 10
989.5913286981
 20
-455.39926529
  0
LWPOLYLINE
  5
E5
330
1F
100
AcDbEntity
  8
0
  6
Continuous
 62
     7
370
    25
100
AcDbPolyline
 90
       48
 70
   128
 43
0.0
 10
853.1024216933
 20
-691.83060472
 10
854.8477360586
 20
-692.7878955055
 10
858.4763538988
 20
-694.4788412888
 10
862.2663594654
 20
-695.8595311581
 10
866.2080238686
 20
-696.9264209023
 10
870.2912289124
 20
-697.6767718308
 10
874.5054930679
 20
-698.1086578034
 10
878.8399983795
 20
-698.2209701752
 10
883.2836182343
 20
-698.0134206417
 10
887.8249459238
 20
-697.4865419798
 10
892.4523239249
 20
-696.6416866793
 10
897.1538738248
 20
-695.4810234718
 10
901.9175268122
 20
-694.007531763
 10
906.7310546582
 20
-692.224993985
 10
911.5821011059
 20
-690.1379858867
 10
916.4582135887
 20
-687.7518647879
 10
921.3468751957
 20
-685.0727558274
 10
926.2355368027
 20
-682.1075362394
 10
931.1116492855
 20
-678.8638177
 10
935.9626957332
 20
-675.3499267882
 10
940.7762235793
 20
-671.5748836117
 10
945.5398765667
 20
-667.5483786519
 10
950.2414264665
 20
-663.2807478896
 10
954.8688044677
 20
-658.7829462716
 10
959.4101321572
 20
-654.0665195901
 10
963.8537520119
 20
-649.1435748449
 10
968.1882573236
 20
-644.0267491644
 10
972.4025214791
 20
-638.7291773669
 10
976.4857265228
 20
-633.264458243
 10
980.427390926
 20
-627.6466196485
 10
984.2173964927
 20
-621.8900824945
 10
987.8460143328
 20
-616.0096237292
 10
991.3039298366
 20
-610.020338406
 10
994.5822665844
 20
-603.9376009344
 10
997.6726091329
 20
-597.7770256143
 10
1000.567024617
 20
-591.5544265541
 10
1003.2580831138
 20
-585.2857770764
 10
1005.7388767146
 20
-578.9871687144
 10
1008.0030372578
 20
-572.6747699056
 10
1010.0447526759
 20
-566.3647844871
 10
1011.8587819146
 20
-560.073410101
 10
1013.4404683869
 20
-553.8167966151
 10
1014.7857519263
 20
-547.6110046666
 10
1015.8911792092
 20
-541.4719644342
 10
1016.7539126197
 20
-535.4154347463
 10
1017.3717375334
 20
-529.4569626277
 10
1017.7430680028
 20
-523.6118433909
 10
1017.8669508277
 20
-517.8950813731
  0
LWPOLYLINE
  5
E6
330
1F
100
AcDbEntity
  8
0
  6
Continuous
 62
     7
370
    25
100
AcDbPolyline
 90
      125
 70
   128
 43
0.0
 10
742.8024129461
 20
-359.1037036236
 10
742.6785301212
 20
-353.5299736709
 10
742.3071996519
 20
-348.1135834683
 10
741.6893747381
 20
-342.8684368115
 10
740.8266413276
 20
-337.807997917
 10
739.7212140447
 20
-332.9452568587
 10
738.3759305053
 20
-328.2926962232
 10
736.794244033
 20
-323.862259067
 10
734.9802147943
 20
-319.6653182586
 10
732.9384993762
 20
-315.712647285
 10
730.674338833
 20
-312.0143925958
 10
728.1935452322
 20
-308.5800475578
 10
725.5024867354
 20
-305.4184280854
 10
722.6080712513
 20
-302.5376500105
 10
719.5177287028
 20
-299.9451082491
 10
716.239391955
 20
-297.6474578187
 10
712.7814764513
 20
-295.650596755
 10
709.1528586111
 20
-293.9596509717
 10
705.3628530444
 20
-292.5789611024
 10
701.4211886412
 20
-291.5120713582
 10
697.3379835975
 20
-290.7617204297
 10
693.123719442
 20
-290.3298344571
 10
688.7892141304
 20
-290.2175220853
 10
684.3455942756
 20
-290.4250716188
 10
679.8042665861
 20
-290.9519502807
 10
675.176888585
 20
-291.7968055812
 10
670.4753386851
 20
-292.9574687887
 10
665.7116856977
 20
-294.4309604975
 10
660.8981578517
 20
-296.2134982755
 10
656.0471114039
 20
-298.3005063738
 10
651.1709989212
 20
-300.6866274726
 10
646.2823373142
 20
-303.3657364331
 10
641.3936757071
 20
-306.3309560211
 10
636.5175632244
 20
-309.5746745605
 10
631.6665167766
 20
-313.0885654723
 10
626.8529889306
 20
-316.8636086489
 10
622.0893359432
 20
-320.8901136086
 10
617.3877860433
 20
-325.1577443709
 10
612.7604080422
 20
-329.6555459889
 10
608.2190803527
 20
-334.3719726704
 10
603.7754604979
 20
-339.2949174156
 10
599.4409551863
 20
-344.4117430961
 10
595.2266910308
 20
-349.7093148936
 10
591.1434859871
 20
-355.1740340175
 10
587.2018215839
 20
-360.791872612
 10
583.4118160172
 20
-366.548409766
 10
579.7831981771
 20
-372.4288685313
 10
576.3252826733
 20
-378.4181538545
 10
573.0469459255
 20
-384.5008913261
 10
569.956603377
 20
-390.6614666462
 10
567.0621878929
 20
-396.8840657064
 10
564.3711293961
 20
-403.1527151841
 10
561.8903357953
 20
-409.4513235461
 10
559.6261752521
 20
-415.7637223549
 10
557.584459834
 20
-422.0737077734
 10
555.7704305953
 20
-428.3650821595
 10
554.188744123
 20
-434.6216956454
 10
552.8434605836
 20
-440.8274875939
 10
551.7380333007
 20
-446.9665278263
 10
550.8752998902
 20
-453.0230575142
 10
550.2574749765
 20
-458.9815296328
 10
549.8861445071
 20
-464.8266488696
 10
549.7622616822
 20
-470.5434108874
 10
549.8861445071
 20
-476.1171408401
 10
550.2574749765
 20
-481.5335310427
 10
550.8752998902
 20
-486.7786776995
 10
551.7380333007
 20
-491.839116594
 10
552.8434605836
 20
-496.7018576523
 10
554.188744123
 20
-501.3544182878
 10
555.7704305953
 20
-505.784855444
 10
557.584459834
 20
-509.9817962524
 10
559.6261752521
 20
-513.934467226
 10
561.8903357953
 20
-517.6327219152
 10
564.3711293961
 20
-521.0670669532
 10
567.0621878929
 20
-524.2286864255
 10
569.956603377
 20
-527.1094645004
 10
573.0469459255
 20
-529.7020062618
 10
576.3252826733
 20
-531.9996566923
 10
579.7831981771
 20
-533.996517756
 10
583.4118160172
 20
-535.6874635393
 10
587.2018215839
 20
-537.0681534086
 10
591.1434859871
 20
-538.1350431528
 10
595.2266910308
 20
-538.8853940813
 10
599.4409551863
 20
-539.3172800539
 10
603.7754604979
 20
-539.4295924256
 10
608.2190803527
 20
-539.2220428922
 10
612.7604080422
 20
-538.6951642303
 10
617.3877860434
 20
-537.8503089298
 10
622.0893359432
 20
-536.6896457223
 10
626.8529889306
 20
-535.2161540135
 10
631.6665167766
 20
-533.4336162354
 10
636.5175632244
 20
-531.3466081371
 10
641.3936757072
 20
-528.9604870384
 10
646.2823373142
 20
-526.2813780779
 10
651.1709989212
 20
-523.3161584899
 10
656.0471114039
 20
-520.0724399505
 10
660.8981578517
 20
-516.5585490387
 10
665.7116856977
 20
-512.7835058621
 10
670.4753386851
 20
-508.7570009024
 10
675.176888585
 20
-504.4893701401
 10
679.8042665861
 20
-499.9915685221
 10
684.3455942756
 20
-495.2751418406
 10
688.7892141304
 20
-490.3521970954
 10
693.123719442
 20
-485.2353714149
 10
697.3379835975
 20
-479.9377996173
 10
701.4211886412
 20
-474.4730804935
 10
705.3628530444
 20
-468.855241899
 10
709.1528586111
 20
-463.098704745
 10
712.7814764513
 20
-457.2182459797
 10
716.239391955
 20
-451.2289606565
 10
719.5177287028
 20
-445.1462231849
 10
722.6080712513
 20
-438.9856478648
 10
725.5024867354
 20
-432.7630488046
 10
728.1935452322
 20
-426.4943993269
 10
730.674338833
 20
-420.1957909649
 10
732.9384993762
 20
-413.8833921561
 10
734.9802147943
 20
-407.5734067376
 10
736.794244033
 20
-401.2820323515
 10
738.3759305053
 20
-395.0254188656
 10
739.7212140447
 20
-388.8196269171
 10
740.8266413276
 20
-382.6805866847
 10
741.6893747381
 20
-376.6240569968
 10
742.3071996519
 20
-370.6655848782
 10
742.6785301212
 20
-364.8204656414
 10
742.8024129461
 20
-359.1037036236
  0
LWPOLYLINE
  5
E7
330
1F
100
AcDbEntity
  8
0
  6
Continuous
 62
     7
370
    25
100
AcDbPolyline
 90
      119
 70
   128
 43
0.0
 10
733.8221568251
 20
-364.2878951337
 10
733.6980862604
 20
-358.9794095075
 10
733.326226258
 20
-353.8292201854
 10
732.7076308953
 20
-348.8519259385
 10
731.8440536482
 20
-344.0616354482
 10
730.7379424201
 20
-339.4719273133
 10
729.3924326036
 20
-335.0958115602
 10
727.8113381923
 20
-330.9456927643
 10
725.9991409702
 20
-327.0333348884
 10
723.9609778072
 20
-323.3698279359
 10
721.7026260982
 20
-319.9655565153
 10
719.2304873866
 20
-316.8301704038
 10
716.5515692179
 20
-313.9725571939
 10
713.673465277
 20
-311.4008171008
 10
710.604333862
 20
-309.1222400012
 10
707.3528747594
 20
-307.1432847694
 10
703.9283045834
 20
-305.4695609691
 10
700.3403306501
 20
-304.1058129522
 10
696.5991234615
 20
-303.0559064106
 10
692.7152878758
 20
-302.3228174185
 10
688.6998330469
 20
-301.9086239962
 10
684.5641412179
 20
-301.8145002201
 10
680.3199354566
 20
-302.0407128942
 10
675.9792464252
 20
-302.5866207941
 10
671.5543782785
 20
-303.4506764845
 10
667.057873786
 20
-304.6304307057
 10
662.5024787781
 20
-306.1225393163
 10
657.9011060171
 20
-307.9227727722
 10
653.2667985938
 20
-310.0260281161
 10
648.6126929561
 20
-312.4263434422
 10
643.9519816722
 20
-315.116914796
 10
639.2978760346
 20
-318.0901154606
 10
634.6635686113
 20
-321.3375175757
 10
630.0621958502
 20
-324.8499160272
 10
625.5068008423
 20
-328.6173545401
 10
621.0102963498
 20
-332.6291539006
 10
616.5854282031
 20
-336.8739422275
 10
612.2447391718
 20
-341.3396872072
 10
608.0005334104
 20
-346.0137302003
 10
603.8648415814
 20
-350.8828221241
 10
599.8493867526
 20
-355.9331610086
 10
595.9655511669
 20
-361.1504311195
 10
592.2243439782
 20
-366.5198435378
 10
588.6363700449
 20
-372.0261780807
 10
585.2117998689
 20
-377.6538264447
 10
581.9603407663
 20
-383.3868364489
 10
578.8912093514
 20
-389.2089572538
 10
576.0131054104
 20
-395.1036854254
 10
573.3341872418
 20
-401.0543117161
 10
570.8620485301
 20
-407.0439684293
 10
568.6036968211
 20
-413.0556772323
 10
566.5655336581
 20
-419.0723972832
 10
564.753336436
 20
-425.0770735355
 10
563.1722420248
 20
-431.0526850818
 10
561.8267322082
 20
-436.9822934021
 10
560.7206209802
 20
-442.8490903774
 10
559.857043733
 20
-448.6364459341
 10
559.2384483704
 20
-454.3279551842
 10
558.8665883679
 20
-459.9074849263
 10
558.7425178033
 20
-465.3592193773
 10
558.8665883679
 20
-470.6677050035
 10
559.2384483704
 20
-475.8178943256
 10
559.857043733
 20
-480.7951885724
 10
560.7206209802
 20
-485.5854790628
 10
561.8267322082
 20
-490.1751871977
 10
563.1722420248
 20
-494.5513029508
 10
564.753336436
 20
-498.7014217466
 10
566.5655336581
 20
-502.6137796225
 10
568.6036968211
 20
-506.2772865751
 10
570.8620485301
 20
-509.6815579957
 10
573.3341872418
 20
-512.8169441072
 10
576.0131054104
 20
-515.6745573171
 10
578.8912093514
 20
-518.2462974102
 10
581.9603407663
 20
-520.5248745098
 10
585.2117998689
 20
-522.5038297415
 10
588.6363700449
 20
-524.1775535419
 10
592.2243439782
 20
-525.5413015588
 10
595.9655511669
 20
-526.5912081004
 10
599.8493867526
 20
-527.3242970925
 10
603.8648415814
 20
-527.7384905148
 10
608.0005334104
 20
-527.8326142909
 10
612.2447391718
 20
-527.6064016168
 10
616.5854282031
 20
-527.0604937169
 10
621.0102963498
 20
-526.1964380265
 10
625.5068008423
 20
-525.0166838052
 10
630.0621958502
 20
-523.5245751947
 10
634.6635686113
 20
-521.7243417388
 10
639.2978760346
 20
-519.6210863949
 10
643.9519816722
 20
-517.2207710688
 10
648.6126929561
 20
-514.530199715
 10
653.2667985938
 20
-511.5569990504
 10
657.9011060171
 20
-508.3095969353
 10
662.5024787781
 20
-504.7971984838
 10
667.057873786
 20
-501.0297599709
 10
671.5543782785
 20
-497.0179606104
 10
675.9792464252
 20
-492.7731722835
 10
680.3199354566
 20
-488.3074273038
 10
684.5641412179
 20
-483.6333843107
 10
688.6998330469
 20
-478.7642923868
 10
692.7152878758
 20
-473.7139535024
 10
696.5991234615
 20
-468.4966833915
 10
700.3403306501
 20
-463.1272709731
 10
703.9283045834
 20
-457.6209364303
 10
707.3528747594
 20
-451.9932880663
 10
710.604333862
 20
-446.260278062
 10
713.673465277
 20
-440.4381572571
 10
716.5515692179
 20
-434.5434290856
 10
719.2304873866
 20
-428.5928027949
 10
721.7026260982
 20
-422.6031460817
 10
723.9609778072
 20
-416.5914372787
 10
725.9991409702
 20
-410.5747172278
 10
727.8113381923
 20
-404.5700409755
 10
729.3924326036
 20
-398.5944294292
 10
730.7379424201
 20
-392.6648211088
 10
731.8440536482
 20
-386.7980241336
 10
732.7076308953
 20
-381.0106685769
 10
733.326226258
 20
-375.3191593268
 10
733.6980862604
 20
-369.7396295846
 10
733.8221568251
 20
-364.2878951337
  0
LWPOLYLINE
  5
E8
330
1F
100
AcDbEntity
  8
0
  6
Continuous
 62
     7
370
    25
100
AcDbPolyline
 90
       19
 70
   128
 43
0.0
 10
1158.5812002838
 20
-565.6549559147
 10
1158.4566045971
 20
-559.2704412729
 10
1158.0830649103
 20
-553.0424576118
 10
1157.4613228518
 20
-546.9833700163
 10
1156.5926128329
 20
-541.1052082441
 10
1155.478659597
 20
-535.4196428413
 10
1154.1216747951
 20
-529.9379619717
 10
1152.5243525949
 20
-524.6710490052
 10
1150.6898643318
 20
-519.62936091
 10
1148.6218522124
 20
-514.8229074911
 10
1146.3244220834
 20
-510.261231517
 10
1143.8021352796
 20
-505.9533897729
 10
1141.059999568
 20
-501.90793508
 10
1138.1034592053
 20
-498.1328993141
 10
1134.9383841286
 20
-494.6357774591
 10
1131.5710583015
 20
-491.423512727
 10
1128.0081672378
 20
-488.5024827719
 10
1124.2567847279
 20
-485.8784870284
 10
1121.8125341447
 20
-484.3875027664
  0
LWPOLYLINE
  5
E9
330
1F
100
AcDbEntity
  8
0
  6
Continuous
 62
     7
370
    25
100
AcDbPolyline
 90
       54
 70
   128
 43
0.0
 10
944.3269591018
 20
-791.8348489116
 10
947.8468124905
 20
-793.7116867229
 10
952.0360564503
 20
-795.5716197014
 10
956.3861853011
 20
-797.1189295439
 10
960.8885622648
 20
-798.3505442099
 10
965.5342482885
 20
-799.2640184424
 10
970.3140197929
 20
-799.8575386229
 10
975.2183869839
 20
-800.1299263721
 10
980.2376126945
 20
-800.0806408893
 10
985.3617317167
 20
-799.7097800262
 10
990.5805705864
 20
-799.0180800928
 10
995.8837677821
 20
-798.0069143952
 10
1001.2607942967
 20
-796.6782905094
 10
1006.7009745418
 20
-795.0348462951
 10
1012.193507543
 20
-793.0798446586
 10
1017.7274883846
 20
-790.8171670748
 10
1023.2919298597
 20
-788.2513058805
 10
1028.8757842849
 20
-785.3873553557
 10
1034.4679654342
 20
-782.2310016089
 10
1040.0573705494
 20
-778.7885112885
 10
1045.6329023841
 20
-775.0667191402
 10
1051.183491236
 20
-771.0730144379
 10
1056.6981169246
 20
-766.8153263126
 10
1062.1658306711
 20
-762.30210801
 10
1067.575776836
 20
-757.5423201072
 10
1072.917214472
 20
-752.5454127225
 10
1078.179538649
 20
-747.321306753
 10
1083.3523015095
 20
-741.8803741776
 10
1088.4252330116
 20
-736.2334174642
 10
1093.3882613195
 20
-730.3916481227
 10
1098.2315327997
 20
-724.3666644453
 10
1102.9454315852
 20
-718.1704284796
 10
1107.5205986662
 20
-711.8152422783
 10
1111.947950472
 20
-705.3137234755
 10
1116.2186969053
 20
-698.6787802349
 10
1120.3243587945
 20
-691.9235856222
 10
1124.2567847279
 20
-685.061551451
 10
1128.0081672378
 20
-678.1063016549
 10
1131.5710583015
 20
-671.0716452387
 10
1134.9383841286
 20
-663.9715488614
 10
1138.1034592053
 20
-656.8201091072
 10
1141.059999568
 20
-649.6315244979
 10
1143.8021352796
 20
-642.4200673026
 10
1146.3244220834
 20
-635.2000552022
 10
1148.6218522124
 20
-627.9858228623
 10
1150.6898643318
 20
-620.7916934735
 10
1152.5243525949
 20
-613.6319503138
 10
1154.1216747951
 20
-606.5208083905
 10
1155.478659597
 20
-599.4723862176
 10
1156.5926128329
 20
-592.5006777849
 10
1157.4613228518
 20
-585.6195247742
 10
1158.0830649103
 20
-578.8425890779
 10
1158.4566045971
 20
-572.1833256743
 10
1158.5812002838
 20
-565.6549559147
  0
LWPOLYLINE
  5
EA
330
1F
100
AcDbEntity
  8
0
  6
Continuous
 62
     7
370
    25
100
AcDbPolyline
 90
       35
 70
   128
 43
0.0
 10
1047.5654356375
 20
-501.5669191367
 10
1047.4408399508
 20
-495.1824044949
 10
1047.067300264
 20
-488.9544208337
 10
1046.4455582055
 20
-482.8953332382
 10
1045.5768481867
 20
-477.017171466
 10
1044.4628949507
 20
-471.3316060632
 10
1043.1059101488
 20
-465.8499251936
 10
1041.5085879486
 20
-460.5830122271
 10
1039.6740996855
 20
-455.5413241319
 10
1037.6060875661
 20
-450.734870713
 10
1035.3086574371
 20
-446.1731947389
 10
1032.7863706333
 20
-441.8653529949
 10
1030.0442349217
 20
-437.8198983019
 10
1027.087694559
 20
-434.044862536
 10
1023.9226194823
 20
-430.5477406811
 10
1020.5552936552
 20
-427.3354759489
 10
1016.9924025915
 20
-424.4144459938
 10
1013.2410200816
 20
-421.7904502503
 10
1009.3085941482
 20
-419.4686984192
 10
1005.202932259
 20
-417.4538001237
 10
1000.9321858257
 20
-415.7497557579
 10
996.5048340199
 20
-414.3599485442
 10
991.9296669389
 20
-413.2871378161
 10
987.2157681534
 20
-412.5334535401
 10
982.3724966732
 20
-412.1003920864
 10
977.4094683653
 20
-411.9888132587
 10
972.3365368632
 20
-412.1989385861
 10
967.1637740027
 20
-412.7303508845
 10
961.9014498257
 20
-413.5819950838
 10
956.5600121897
 20
-414.7521803233
 10
951.1500660248
 20
-416.2385833086
 10
945.6823522783
 20
-418.0382529241
 10
940.1677265897
 20
-420.1476160924
 10
934.6171377378
 20
-422.5624848682
 10
933.5620001246
 20
-423.0542223881
  0
LWPOLYLINE
  5
EB
330
1F
100
AcDbEntity
  8
0
  6
Continuous
 62
     7
370
    25
100
AcDbPolyline
 90
       70
 70
   128
 43
0.0
 10
797.0730931197
 20
-659.485561818
 10
797.3205750477
 20
-662.1432730964
 10
798.0659861024
 20
-668.1133796009
 10
799.057563846
 20
-673.8966786422
 10
800.2933395928
 20
-679.4816880153
 10
801.7708598243
 20
-684.8573192012
 10
803.487191061
 20
-690.0128993818
 10
805.4389256859
 20
-694.9381926298
 10
807.6221887107
 20
-699.6234202313
 10
810.0326454687
 20
-704.0592801007
 10
812.6655102211
 20
-708.2369652487
 10
815.5155556588
 20
-712.1481812683
 10
818.5771232802
 20
-715.7851628021
 10
821.8441346263
 20
-719.1406889598
 10
825.3101033485
 20
-722.2080976549
 10
828.9681480866
 20
-724.9812988314
 10
832.8110061315
 20
-727.454786555
 10
836.8310478442
 20
-729.6236499448
 10
841.020291804
 20
-731.4835829234
 10
845.3704206548
 20
-733.0308927658
 10
849.8727976185
 20
-734.2625074318
 10
854.5184836423
 20
-735.1759816643
 10
859.2982551466
 20
-735.7695018448
 10
864.2026223376
 20
-736.041889594
 10
869.2218480482
 20
-735.9926041112
 10
874.3459670704
 20
-735.6217432481
 10
879.5648059401
 20
-734.9300433147
 10
884.8680031358
 20
-733.9188776171
 10
890.2450296504
 20
-732.5902537313
 10
895.6852098955
 20
-730.946809517
 10
901.1777428968
 20
-728.9918078805
 10
906.7117237383
 20
-726.7291302967
 10
912.2761652134
 20
-724.1632691024
 10
917.8600196386
 20
-721.2993185776
 10
923.4522007879
 20
-718.1429648308
 10
929.0416059031
 20
-714.7004745104
 10
934.6171377378
 20
-710.9786823621
 10
940.1677265897
 20
-706.9849776598
 10
945.6823522783
 20
-702.7272895345
 10
951.1500660248
 20
-698.2140712319
 10
956.5600121897
 20
-693.4542833291
 10
961.9014498257
 20
-688.4573759444
 10
967.1637740027
 20
-683.2332699749
 10
972.3365368632
 20
-677.7923373995
 10
977.4094683653
 20
-672.1453806861
 10
982.3724966732
 20
-666.3036113446
 10
987.2157681534
 20
-660.2786276673
 10
991.9296669389
 20
-654.0823917015
 10
996.5048340199
 20
-647.7272055002
 10
1000.9321858257
 20
-641.2256866974
 10
1005.202932259
 20
-634.5907434568
 10
1009.3085941482
 20
-627.8355488441
 10
1013.2410200816
 20
-620.9735146729
 10
1016.9924025915
 20
-614.0182648768
 10
1020.5552936552
 20
-606.9836084606
 10
1023.9226194823
 20
-599.8835120833
 10
1027.087694559
 20
-592.7320723292
 10
1030.0442349217
 20
-585.5434877198
 10
1032.7863706333
 20
-578.3320305245
 10
1035.3086574371
 20
-571.1120184241
 10
1037.6060875661
 20
-563.8977860842
 10
1039.6740996855
 20
-556.7036566955
 10
1041.5085879486
 20
-549.5439135358
 10
1043.1059101488
 20
-542.4327716124
 10
1044.4628949507
 20
-535.3843494395
 10
1045.5768481867
 20
-528.4126410069
 10
1046.4455582055
 20
-521.5314879961
 10
1047.067300264
 20
-514.7545522998
 10
1047.4408399508
 20
-508.0952888962
 10
1047.5654356375
 20
-501.5669191367
  0
LWPOLYLINE
  5
EC
330
1F
100
AcDbEntity
  8
0
  6
Continuous
 62
     7
370
    25
100
AcDbPolyline
 90
       17
 70
   128
 43
0.0
 10
1018.9276109995
 20
-518.0991834011
 10
1018.8032743913
 20
-512.5050368552
 10
1018.4305837371
 20
-507.0688063953
 10
1017.8104957284
 20
-501.8044467472
 10
1016.9446021223
 20
-496.7254714464
 10
1015.8351256552
 20
-491.8449181499
 10
1014.4849143373
 20
-487.1753151677
 10
1012.8974341416
 20
-482.728649304
 10
1011.0767601072
 20
-478.5163350861
 10
1009.0275658781
 20
-474.5491854642
 10
1006.7551117064
 20
-470.8373840545
 10
1004.2652309496
 20
-467.390458998
 10
1001.5643150957
 20
-464.217258502
 10
998.6592973571
 20
-461.3259281264
 10
995.5576348725
 20
-458.7238898751
 10
992.2672895652
 20
-456.4178231427
 10
990.5484151625
 20
-455.3744449148
  0
LWPOLYLINE
  5
ED
330
1F
100
AcDbEntity
  8
0
  6
Continuous
 62
     7
370
    25
100
AcDbPolyline
 90
       48
 70
   128
 43
0.0
 10
853.5595487913
 20
-692.6718332071
 10
855.3112562496
 20
-693.6326305522
 10
858.9531657302
 20
-695.3297702761
 10
862.7570541011
 20
-696.7155176175
 10
866.7131568354
 20
-697.7863153828
 10
870.8113186742
 20
-698.5394148494
 10
875.0410196948
 20
-698.972882822
 10
879.3914023152
 20
-699.0856065943
 10
883.8512991658
 20
-698.8772968062
 10
888.4092617552
 20
-698.3484881858
 10
893.053589859
 20
-697.5005381773
 10
897.7723615533
 20
-696.3356234562
 10
902.5534638191
 20
-694.8567343418
 10
907.3846236352
 20
-693.0676671214
 10
912.2534394839
 20
-690.9730143048
 10
917.1474131845
 20
-688.5781528357
 10
922.0539819769
 20
-685.8892302893
 10
926.9605507693
 20
-682.913149091
 10
931.85452447
 20
-679.6575487988
 10
936.7233403186
 20
-676.1307864917
 10
941.5545001348
 20
-672.3419153181
 10
946.3356024005
 20
-668.300661256
 10
951.0543740949
 20
-664.0173981466
 10
955.6987021986
 20
-659.5031210647
 10
960.256664788
 20
-654.7694180951
 10
964.7165616386
 20
-649.8284405852
 10
969.0669442591
 20
-644.6928719535
 10
973.2966452796
 20
-639.3758951311
 10
977.3948071184
 20
-633.8911587211
 10
981.3509098527
 20
-628.2527419632
 10
985.1547982236
 20
-622.4751185925
 10
988.7967077043
 20
-616.5731196852
 10
992.2672895652
 20
-610.561895588
 10
995.5576348725
 20
-604.4568770267
 10
998.6592973571
 20
-598.2737354966
 10
1001.5643150957
 20
-592.0283430333
 10
1004.2652309496
 20
-585.7367314695
 10
1006.7551117064
 20
-579.4150512821
 10
1009.0275658781
 20
-573.0795301333
 10
1011.0767601072
 20
-566.7464312151
 10
1012.8974341416
 20
-560.4320115016
 10
1014.4849143373
 20
-554.1524800176
 10
1015.8351256552
 20
-547.9239562304
 10
1016.9446021223
 20
-541.7624286712
 10
1017.8104957284
 20
-535.6837138929
 10
1018.4305837371
 20
-529.7034158691
 10
1018.8032743913
 20
-523.8368859391
 10
1018.9276109995
 20
-518.0991834011
  0
LWPOLYLINE
  5
EE
330
1F
100
AcDbEntity
  8
0
  6
Continuous
 62
     7
370
    25
100
AcDbPolyline
 90
       19
 70
   128
 43
0.0
 10
1018.2205042183
 20
-517.6909793452
 10
1018.0961676101
 20
-512.0968327993
 10
1017.7234769559
 20
-506.6606023394
 10
1017.1033889472
 20
-501.3962426913
 10
1016.2374953411
 20
-496.3172673905
 10
1015.128018874
 20
-491.4367140939
 10
1013.7778075561
 20
-486.7671111118
 10
1012.1903273605
 20
-482.3204452481
 10
1010.369653326
 20
-478.1081310301
 10
1008.3204590969
 20
-474.1409814083
 10
1006.0480049252
 20
-470.4291799986
 10
1003.5581241684
 20
-466.9822549421
 10
1000.8572083145
 20
-463.8090544461
 10
997.9521905759
 20
-460.9177240705
 10
994.8505280913
 20
-458.3156858191
 10
991.560182784
 20
-456.0096190868
 10
988.0896009231
 20
-454.0054435137
 10
984.4476914425
 20
-452.3083037898
 10
983.7438457841
 20
-452.0235852571
  0
LWPOLYLINE
  5
EF
330
1F
100
AcDbEntity
  8
0
  6
Continuous
 62
     7
370
    25
100
AcDbPolyline
 90
       50
 70
   128
 43
0.0
 10
847.2549387793
 20
-688.4549246871
 10
847.8432223001
 20
-688.9141841909
 10
851.1335676075
 20
-691.2202509232
 10
854.6041494684
 20
-693.2244264963
 10
858.246058949
 20
-694.9215662202
 10
862.0499473199
 20
-696.3073135616
 10
866.0060500543
 20
-697.3781113268
 10
870.104211893
 20
-698.1312107935
 10
874.3339129136
 20
-698.5646787661
 10
878.684295534
 20
-698.6774025384
 10
883.1441923846
 20
-698.4690927503
 10
887.7021549741
 20
-697.9402841299
 10
892.3464830778
 20
-697.0923341214
 10
897.0652547721
 20
-695.9274194002
 10
901.8463570379
 20
-694.4485302859
 10
906.677516854
 20
-692.6594630655
 10
911.5463327027
 20
-690.5648102489
 10
916.4403064033
 20
-688.1699487798
 10
921.3468751957
 20
-685.4810262334
 10
926.2534439881
 20
-682.5049450351
 10
931.1474176888
 20
-679.2493447428
 10
936.0162335374
 20
-675.7225824358
 10
940.8473933536
 20
-671.9337112622
 10
945.6284956193
 20
-667.8924572001
 10
950.3472673137
 20
-663.6091940906
 10
954.9915954174
 20
-659.0949170088
 10
959.5495580068
 20
-654.3612140392
 10
964.0094548574
 20
-649.4202365293
 10
968.3598374779
 20
-644.2846678976
 10
972.5895384984
 20
-638.9676910751
 10
976.6877003372
 20
-633.4829546651
 10
980.6438030715
 20
-627.8445379073
 10
984.4476914425
 20
-622.0669145366
 10
988.0896009231
 20
-616.1649156293
 10
991.560182784
 20
-610.1536915321
 10
994.8505280913
 20
-604.0486729708
 10
997.9521905759
 20
-597.8655314407
 10
1000.8572083145
 20
-591.6201389774
 10
1003.5581241684
 20
-585.3285274136
 10
1006.0480049252
 20
-579.0068472262
 10
1008.3204590969
 20
-572.6713260774
 10
1010.369653326
 20
-566.3382271592
 10
1012.1903273605
 20
-560.0238074457
 10
1013.7778075561
 20
-553.7442759617
 10
1015.128018874
 20
-547.5157521745
 10
1016.2374953411
 20
-541.3542246153
 10
1017.1033889472
 20
-535.2755098369
 10
1017.7234769559
 20
-529.2952118132
 10
1018.0961676101
 20
-523.4286818832
 10
1018.2205042183
 20
-517.6909793452
  0
ARC
  5
F0
330
1F
100
AcDbEntity
  8
0
  6
Continuous
 62
     7
370
    25
100
AcDbCircle
 10
1061.2121202374
 20
-601.254703143
 30
0.0
 40
107.6261856399233
100
AcDbArc
 50
359.5024957694
 51
13.7616022247
  0
LWPOLYLINE
  5
F1
330
1F
100
AcDbEntity
  8
0
  6
Continuous
 62
     7
370
    25
100
AcDbPolyline
 90
       38
 70
   128
 43
0.0
 10
1045.3320100558
 20
-784.2428729561
 10
1046.4270930094
 20
-783.9261406857
 10
1051.2894954953
 20
-782.3372286027
 10
1056.1987563954
 20
-780.4376092547
 10
1061.1424744906
 20
-778.2320812451
 10
1066.1081615199
 20
-775.726215929
 10
1071.0832737269
 20
-772.9263433396
 10
1076.0552435464
 20
-769.8395361982
 10
1081.0115113511
 20
-766.4735920474
 10
1085.9395571784
 20
-762.8370135543
 10
1090.8269323569
 20
-758.9389870319
 10
1095.6612909527
 20
-754.7893592333
 10
1100.4304209563
 20
-750.3986124786
 10
1105.1222751316
 20
-745.7778381751
 10
1109.7250014477
 20
-740.9387087997
 10
1114.2269730184
 20
-735.8934484132
 10
1118.6168174728
 20
-730.6548017813
 10
1122.8834456829
 20
-725.2360021799
 10
1127.0160797754
 20
-719.6507379672
 10
1131.0042803581
 20
-713.9131180052
 10
1134.8379728902
 20
-708.03763602
 10
1138.5074731315
 20
-702.039133989
 10
1142.003511606
 20
-695.9327646489
 10
1145.3172570171
 20
-689.7339532186
 10
1148.4403385562
 20
-683.4583584337
 10
1151.3648670485
 20
-677.1218329914
 10
1154.083454881
 20
-670.7403835049
 10
1156.589234665
 20
-664.3301300693
 10
1158.8758765833
 20
-657.9072655413
 10
1160.93760438
 20
-651.4880146339
 10
1162.7692099516
 20
-645.0885929321
 10
1164.3660665036
 20
-638.7251659306
 10
1165.7241402377
 20
-632.4138081982
 10
1166.8400005418
 20
-626.1704627723
 10
1167.710828656
 20
-620.0109008853
 10
1168.3344247927
 20
-613.9506821251
 10
1168.7092136942
 20
-608.0051151302
 10
1168.834248611
 20
-602.1892189188
  0
LWPOLYLINE
  5
F2
330
1F
100
AcDbEntity
  8
0
  6
Continuous
 62
     7
370
    25
100
AcDbPolyline
 90
       17
 70
   128
 43
0.0
 10
1272.0718386643
 20
-661.7870110819
 10
1271.9468037474
 20
-656.1154771127
 10
1271.572014846
 20
-650.6026321726
 10
1270.9484187092
 20
-645.2624021865
 10
1270.077590595
 20
-640.1082770387
 10
1268.9617302909
 20
-635.1532764968
 10
1267.6036565568
 20
-630.409917322
 10
1266.0068000048
 20
-625.8901816513
 10
1264.1751944332
 20
-621.6054867294
 10
1262.1134666366
 20
-617.5666560673
 10
1259.8268247183
 20
-613.783892102
 10
1257.3210449342
 20
-610.2667504234
 10
1254.6024571017
 20
-607.0241156368
 10
1251.6779286095
 20
-604.0641789189
 10
1248.5548470703
 20
-601.3944173269
 10
1245.2411016592
 20
-599.0215749102
 10
1243.0712005827
 20
-597.6887381762
  0
LWPOLYLINE
  5
F3
330
1F
100
AcDbEntity
  8
0
  6
Continuous
 62
     7
370
    25
100
AcDbPolyline
 90
       48
 70
   128
 43
0.0
 10
1103.0825780136
 20
-840.1824196427
 10
1106.2223521529
 20
-841.8392200479
 10
1109.9751337082
 20
-843.445218258
 10
1113.8873157746
 20
-844.7366943132
 10
1117.9490158407
 20
-845.7103858328
 10
1122.1499736995
 20
-846.3638331876
 10
1126.479577367
 20
-846.6953857129
 10
1130.9268898885
 20
-846.7042058782
 10
1135.4806769666
 20
-846.390271403
 10
1140.12943534
 20
-845.754375313
 10
1144.8614218416
 20
-844.7981239369
 10
1149.6646830626
 20
-843.5239328488
 10
1154.5270855486
 20
-841.9350207658
 10
1159.4363464487
 20
-840.0354014178
 10
1164.3800645438
 20
-837.8298734082
 10
1169.3457515731
 20
-835.324008092
 10
1174.3208637801
 20
-832.5241355027
 10
1179.2928335996
 20
-829.4373283612
 10
1184.2491014043
 20
-826.0713842105
 10
1189.1771472317
 20
-822.4348057174
 10
1194.0645224101
 20
-818.5367791949
 10
1198.8988810059
 20
-814.3871513963
 10
1203.6680110096
 20
-809.9964046416
 10
1208.3598651848
 20
-805.3756303381
 10
1212.9625915009
 20
-800.5365009627
 10
1217.4645630716
 20
-795.4912405763
 10
1221.854407526
 20
-790.2525939443
 10
1226.1210357361
 20
-784.833794343
 10
1230.2536698287
 20
-779.2485301302
 10
1234.2418704114
 20
-773.5109101683
 10
1238.0755629434
 20
-767.6354281831
 10
1241.7450631847
 20
-761.6369261521
 10
1245.2411016592
 20
-755.5305568119
 10
1248.5548470703
 20
-749.3317453816
 10
1251.6779286095
 20
-743.0561505968
 10
1254.6024571017
 20
-736.7196251545
 10
1257.3210449342
 20
-730.338175668
 10
1259.8268247183
 20
-723.9279222324
 10
1262.1134666366
 20
-717.5050577043
 10
1264.1751944332
 20
-711.0858067969
 10
1266.0068000048
 20
-704.6863850952
 10
1267.6036565568
 20
-698.3229580937
 10
1268.9617302909
 20
-692.0116003613
 10
1270.077590595
 20
-685.7682549354
 10
1270.9484187092
 20
-679.6086930484
 10
1271.572014846
 20
-673.5484742881
 10
1271.9468037474
 20
-667.6029072932
 10
1272.0718386643
 20
-661.7870110819
  0
ENDSEC
  0
SECTION
  2
OBJECTS
  0
DICTIONARY
  5
C
330
0
100
AcDbDictionary
281
     1
  3
ACAD_GROUP
350
D
  3
ACAD_LAYOUT
350
1A
  3
ACAD_MLINESTYLE
350
17
  3
ACAD_PLOTSETTINGS
350
19
  3
ACAD_PLOTSTYLENAME
350
E
  3
ACAD_SCALELIST
350
47
  3
DWGPROPS
350
F4
  0
DICTIONARY
  5
D
102
{ACAD_REACTORS
330
C
102
}
330
C
100
AcDbDictionary
281
     1
  0
DICTIONARY
  5
1A
102
{ACAD_REACTORS
330
C
102
}
330
C
100
AcDbDictionary
281
     1
  3
Layout1
350
1E
  3
Layout2
350
26
  3
Model
350
22
  0
DICTIONARY
  5
17
102
{ACAD_REACTORS
330
C
102
}
330
C
100
AcDbDictionary
281
     1
  3
Standard
350
18
  0
DICTIONARY
  5
19
102
{ACAD_REACTORS
330
C
102
}
330
C
100
AcDbDictionary
281
     1
  0
ACDBDICTIONARYWDFLT
  5
E
102
{ACAD_REACTORS
330
C
102
}
330
C
100
AcDbDictionary
281
     1
  3
Normal
350
F
100
AcDbDictionaryWithDefault
340
F
  0
DICTIONARY
  5
47
102
{ACAD_REACTORS
330
C
102
}
330
C
100
AcDbDictionary
281
     1
  3
A0
350
48
  3
A1
350
49
  3
A2
350
4A
  3
A3
350
4B
  3
A4
350
4C
  3
A5
350
4D
  3
A6
350
4E
  3
A7
350
4F
  3
A8
350
50
  3
A9
350
51
  3
B0
350
52
  3
B1
350
53
  3
B2
350
54
  3
B3
350
55
  3
B4
350
56
  3
B5
350
57
  3
B6
350
58
  3
B7
350
59
  3
B8
350
5A
  3
B9
350
5B
  3
C0
350
5C
  3
C1
350
5D
  3
C2
350
5E
  3
C3
350
5F
  3
C4
350
60
  3
C5
350
61
  3
C6
350
62
  3
C7
350
63
  3
C8
350
64
  3
C9
350
65
  3
D0
350
66
  3
D1
350
67
  3
D2
350
68
  0
XRECORD
  5
F4
102
{ACAD_REACTORS
330
C
102
}
330
C
100
AcDbXrecord
280
     1
  1
DWGPROPS COOKIE
  2

  3

  4

  6

  7

  8
b.kav
  9

300
=
301
=
302
=
303
=
304
=
305
=
306
=
307
=
308
=
309
=
 40
0.0
 41
2459935.584751146
 42
2459935.58475132
  1

 90
        0
  0
LAYOUT
  5
1E
102
{ACAD_REACTORS
330
1A
102
}
330
1A
100
AcDbPlotSettings
  1

  2
none_device
  4

  6

 40
0.0
 41
0.0
 42
0.0
 43
0.0
 44
0.0
 45
0.0
 46
0.0
 47
0.0
 48
0.0
 49
0.0
140
0.0
141
0.0
142
1.0
143
1.0
 70
   688
 72
     1
 73
     0
 74
     5
  7

 75
    16
147
1.0
148
0.0
149
0.0
100
AcDbLayout
  1
Layout1
 70
     1
 71
     1
 10
0.0
 20
0.0
 11
420.0
 21
297.0
 12
0.0
 22
0.0
 32
0.0
 14
1.0000000000E+20
 24
1.0000000000E+20
 34
1.0000000000E+20
 15
-1.0000000000E+20
 25
-1.0000000000E+20
 35
-1.0000000000E+20
146
0.0
 13
0.0
 23
0.0
 33
0.0
 16
1.0
 26
0.0
 36
0.0
 17
0.0
 27
1.0
 37
0.0
 76
     0
330
1B
  0
LAYOUT
  5
26
102
{ACAD_REACTORS
330
1A
102
}
330
1A
100
AcDbPlotSettings
  1

  2
none_device
  4

  6

 40
0.0
 41
0.0
 42
0.0
 43
0.0
 44
0.0
 45
0.0
 46
0.0
 47
0.0
 48
0.0
 49
0.0
140
0.0
141
0.0
142
1.0
143
1.0
 70
   688
 72
     1
 73
     0
 74
     5
  7

 75
    16
147
1.0
148
0.0
149
0.0
100
AcDbLayout
  1
Layout2
 70
     1
 71
     2
 10
0.0
 20
0.0
 11
0.0
 21
0.0
 12
0.0
 22
0.0
 32
0.0
 14
0.0
 24
0.0
 34
0.0
 15
0.0
 25
0.0
 35
0.0
146
0.0
 13
0.0
 23
0.0
 33
0.0
 16
1.0
 26
0.0
 36
0.0
 17
0.0
 27
1.0
 37
0.0
 76
     0
330
23
  0
LAYOUT
  5
22
102
{ACAD_REACTORS
330
1A
102
}
330
1A
100
AcDbPlotSettings
  1

  2
none_device
  4
Letter_(8.50_x_11.00_Inches)
  6

 40
6.35
 41
6.35
 42
6.35000508
 43
6.35000508
 44
215.9
 45
279.4
 46
0.0
 47
0.0
 48
0.0
 49
0.0
140
0.0
141
0.0
142
1.0
143
1.0
 70
  1712
 72
     1
 73
     0
 74
     0
  7

 75
     0
147
1.0
148
0.0
149
0.0
100
AcDbLayout
  1
Model
 70
     1
 71
     0
 10
0.0
 20
0.0
 11
279.4
 21
215.9
 12
0.0
 22
0.0
 32
0.0
 14
0.0
 24
0.0
 34
0.0
 15
279.4
 25
215.9
 35
0.0
146
0.0
 13
0.0
 23
0.0
 33
0.0
 16
1.0
 26
0.0
 36
0.0
 17
0.0
 27
1.0
 37
0.0
 76
     0
330
1F
331
29
  0
MLINESTYLE
  5
18
102
{ACAD_REACTORS
330
17
102
}
330
17
100
AcDbMlineStyle
  2
Standard
 70
     0
  3

 62
   256
 51
90.0
 52
90.0
 71
     2
 49
0.5
 62
   256
  6
BYLAYER
 49
-0.5
 62
   256
  6
BYLAYER
  0
ACDBPLACEHOLDER
  5
F
102
{ACAD_REACTORS
330
E
102
}
330
E
  0
SCALE
  5
48
102
{ACAD_REACTORS
330
47
102
}
330
47
100
AcDbScale
 70
     0
300
1:1
140
1.0
141
1.0
290
     1
  0
SCALE
  5
49
102
{ACAD_REACTORS
330
47
102
}
330
47
100
AcDbScale
 70
     0
300
1:2
140
1.0
141
2.0
290
     0
  0
SCALE
  5
4A
102
{ACAD_REACTORS
330
47
102
}
330
47
100
AcDbScale
 70
     0
300
1:4
140
1.0
141
4.0
290
     0
  0
SCALE
  5
4B
102
{ACAD_REACTORS
330
47
102
}
330
47
100
AcDbScale
 70
     0
300
1:5
140
1.0
141
5.0
290
     0
  0
SCALE
  5
4C
102
{ACAD_REACTORS
330
47
102
}
330
47
100
AcDbScale
 70
     0
300
1:8
140
1.0
141
8.0
290
     0
  0
SCALE
  5
4D
102
{ACAD_REACTORS
330
47
102
}
330
47
100
AcDbScale
 70
     0
300
1:10
140
1.0
141
10.0
290
     0
  0
SCALE
  5
4E
102
{ACAD_REACTORS
330
47
102
}
330
47
100
AcDbScale
 70
     0
300
1:16
140
1.0
141
16.0
290
     0
  0
SCALE
  5
4F
102
{ACAD_REACTORS
330
47
102
}
330
47
100
AcDbScale
 70
     0
300
1:20
140
1.0
141
20.0
290
     0
  0
SCALE
  5
50
102
{ACAD_REACTORS
330
47
102
}
330
47
100
AcDbScale
 70
     0
300
1:30
140
1.0
141
30.0
290
     0
  0
SCALE
  5
51
102
{ACAD_REACTORS
330
47
102
}
330
47
100
AcDbScale
 70
     0
300
1:40
140
1.0
141
40.0
290
     0
  0
SCALE
  5
52
102
{ACAD_REACTORS
330
47
102
}
330
47
100
AcDbScale
 70
     0
300
1:50
140
1.0
141
50.0
290
     0
  0
SCALE
  5
53
102
{ACAD_REACTORS
330
47
102
}
330
47
100
AcDbScale
 70
     0
300
1:100
140
1.0
141
100.0
290
     0
  0
SCALE
  5
54
102
{ACAD_REACTORS
330
47
102
}
330
47
100
AcDbScale
 70
     0
300
2:1
140
2.0
141
1.0
290
     0
  0
SCALE
  5
55
102
{ACAD_REACTORS
330
47
102
}
330
47
100
AcDbScale
 70
     0
300
4:1
140
4.0
141
1.0
290
     0
  0
SCALE
  5
56
102
{ACAD_REACTORS
330
47
102
}
330
47
100
AcDbScale
 70
     0
300
8:1
140
8.0
141
1.0
290
     0
  0
SCALE
  5
57
102
{ACAD_REACTORS
330
47
102
}
330
47
100
AcDbScale
 70
     0
300
10:1
140
10.0
141
1.0
290
     0
  0
SCALE
  5
58
102
{ACAD_REACTORS
330
47
102
}
330
47
100
AcDbScale
 70
     0
300
100:1
140
100.0
141
1.0
290
     0
  0
SCALE
  5
59
102
{ACAD_REACTORS
330
47
102
}
330
47
100
AcDbScale
 70
     0
300
1/128" = 1'-0"
140
0.0078125
141
12.0
290
     0
  0
SCALE
  5
5A
102
{ACAD_REACTORS
330
47
102
}
330
47
100
AcDbScale
 70
     0
300
1/64" = 1'-0"
140
0.015625
141
12.0
290
     0
  0
SCALE
  5
5B
102
{ACAD_REACTORS
330
47
102
}
330
47
100
AcDbScale
 70
     0
300
1/32" = 1'-0"
140
0.03125
141
12.0
290
     0
  0
SCALE
  5
5C
102
{ACAD_REACTORS
330
47
102
}
330
47
100
AcDbScale
 70
     0
300
1/16" = 1'-0"
140
0.0625
141
12.0
290
     0
  0
SCALE
  5
5D
102
{ACAD_REACTORS
330
47
102
}
330
47
100
AcDbScale
 70
     0
300
3/32" = 1'-0"
140
0.09375
141
12.0
290
     0
  0
SCALE
  5
5E
102
{ACAD_REACTORS
330
47
102
}
330
47
100
AcDbScale
 70
     0
300
1/8" = 1'-0"
140
0.125
141
12.0
290
     0
  0
SCALE
  5
5F
102
{ACAD_REACTORS
330
47
102
}
330
47
100
AcDbScale
 70
     0
300
3/16" = 1'-0"
140
0.1875
141
12.0
290
     0
  0
SCALE
  5
60
102
{ACAD_REACTORS
330
47
102
}
330
47
100
AcDbScale
 70
     0
300
1/4" = 1'-0"
140
0.25
141
12.0
290
     0
  0
SCALE
  5
61
102
{ACAD_REACTORS
330
47
102
}
330
47
100
AcDbScale
 70
     0
300
3/8" = 1'-0"
140
0.375
141
12.0
290
     0
  0
SCALE
  5
62
102
{ACAD_REACTORS
330
47
102
}
330
47
100
AcDbScale
 70
     0
300
1/2" = 1'-0"
140
0.5
141
12.0
290
     0
  0
SCALE
  5
63
102
{ACAD_REACTORS
330
47
102
}
330
47
100
AcDbScale
 70
     0
300
3/4" = 1'-0"
140
0.75
141
12.0
290
     0
  0
SCALE
  5
64
102
{ACAD_REACTORS
330
47
102
}
330
47
100
AcDbScale
 70
     0
300
1" = 1'-0"
140
1.0
141
12.0
290
     0
  0
SCALE
  5
65
102
{ACAD_REACTORS
330
47
102
}
330
47
100
AcDbScale
 70
     0
300
1-1/2" = 1'-0"
140
1.5
141
12.0
290
     0
  0
SCALE
  5
66
102
{ACAD_REACTORS
330
47
102
}
330
47
100
AcDbScale
 70
     0
300
3" = 1'-0"
140
3.0
141
12.0
290
     0
  0
SCALE
  5
67
102
{ACAD_REACTORS
330
47
102
}
330
47
100
AcDbScale
 70
     0
300
6" = 1'-0"
140
6.0
141
12.0
290
     0
  0
SCALE
  5
68
102
{ACAD_REACTORS
330
47
102
}
330
47
100
AcDbScale
 70
     0
300
1'-0" = 1'-0"
140
12.0
141
12.0
290
     0
  0
ENDSEC
  0
EOF
